999
dxflib 2.0.4.8
  0
SECTION
  2
HEADER
  9
$ACADVER
  1
AC1015
  9
$HANDSEED
  5
FFFF
  9
$CLAYER
  8
0
  9
$DIMASZ
 40
0.25
  9
$DIMGAP
 40
0.0625
  9
$INSUNITS
 70
5
  9
$DIMEXO
 40
0.0625
  9
$GRIDMODE
 70
1
  9
$DIMTXT
 40
0.25
  9
$DIMSTYLE
  2
Standard
  9
$PLIMMIN
 10
0.0
 20
0.0
  9
$PLIMMAX
 10
21.0
 20
29.6999999999999993
  9
$DIMEXE
 40
0.125
  0
ENDSEC
  0
SECTION
  2
TABLES
  0
TABLE
  2
VPORT
  5
8
100
AcDbSymbolTable
 70
1
  0
VPORT
  5
30
100
AcDbSymbolTableRecord
100
AcDbViewportTableRecord
  2
*Active
 70
0
 10
0.0
 20
0.0
 11
1.0
 21
1.0
 12
286.3055555555554861
 22
148.5
 13
0.0
 23
0.0
 14
10.0
 24
10.0
 15
10.0
 25
10.0
 16
0.0
 26
0.0
 36
1.0
 17
0.0
 27
0.0
 37
0.0
 40
297.0
 41
1.92798353909465
 42
50.0
 43
0.0
 44
0.0
 50
0.0
 51
0.0
 71
0
 72
100
 73
1
 74
3
 75
1
 76
1
 77
0
 78
0
281
0
 65
1
110
0.0
120
0.0
130
0.0
111
1.0
121
0.0
131
0.0
112
0.0
122
1.0
132
0.0
 79
0
146
0.0
  0
ENDTAB
  0
TABLE
  2
LTYPE
  5
5
100
AcDbSymbolTable
 70
21
  0
LTYPE
  5
14
100
AcDbSymbolTableRecord
100
AcDbLinetypeTableRecord
  2
ByBlock
 70
0
  3

 72
65
 73
0
 40
0.0
  0
LTYPE
  5
15
100
AcDbSymbolTableRecord
100
AcDbLinetypeTableRecord
  2
ByLayer
 70
0
  3

 72
65
 73
0
 40
0.0
  0
LTYPE
  5
16
100
AcDbSymbolTableRecord
100
AcDbLinetypeTableRecord
  2
CONTINUOUS
 70
0
  3
Solid line
 72
65
 73
0
 40
0.0
  0
LTYPE
  5
31
100
AcDbSymbolTableRecord
100
AcDbLinetypeTableRecord
  2
DOT
 70
0
  3
Dot . . . . . . . . . . . . . . . . . . . . . .
 72
65
 73
2
 40
6.3499999999999996
 49
0.0
 74
0
 49
-6.3499999999999996
 74
0
  0
LTYPE
  5
32
100
AcDbSymbolTableRecord
100
AcDbLinetypeTableRecord
  2
DOT2
 70
0
  3
Dot (.5x) .....................................
 72
65
 73
2
 40
3.1749999999999998
 49
0.0
 74
0
 49
-3.1749999999999998
 74
0
  0
LTYPE
  5
33
100
AcDbSymbolTableRecord
100
AcDbLinetypeTableRecord
  2
DOTX2
 70
0
  3
Dot (2x) .  .  .  .  .  .  .  .  .  .  .  .  .
 72
65
 73
2
 40
12.6999999999999993
 49
0.0
 74
0
 49
-12.6999999999999993
 74
0
  0
LTYPE
  5
34
100
AcDbSymbolTableRecord
100
AcDbLinetypeTableRecord
  2
DASHED
 70
0
  3
Dashed __ __ __ __ __ __ __ __ __ __ __ __ __ _
 72
65
 73
2
 40
19.0500000000000007
 49
12.6999999999999993
 74
0
 49
-6.3499999999999996
 74
0
  0
LTYPE
  5
35
100
AcDbSymbolTableRecord
100
AcDbLinetypeTableRecord
  2
DASHED2
 70
0
  3
Dashed (.5x) _ _ _ _ _ _ _ _ _ _ _ _ _ _ _ _ _
 72
65
 73
2
 40
9.5250000000000004
 49
6.3499999999999996
 74
0
 49
-3.1749999999999998
 74
0
  0
LTYPE
  5
36
100
AcDbSymbolTableRecord
100
AcDbLinetypeTableRecord
  2
DASHEDX2
 70
0
  3
Dashed (2x) ____  ____  ____  ____  ____  ___
 72
65
 73
2
 40
38.1000000000000014
 49
25.3999999999999986
 74
0
 49
-12.6999999999999993
 74
0
  0
LTYPE
  5
37
100
AcDbSymbolTableRecord
100
AcDbLinetypeTableRecord
  2
DASHDOT
 70
0
  3
Dash dot __ . __ . __ . __ . __ . __ . __ . __
 72
65
 73
4
 40
25.3999999999999986
 49
12.6999999999999993
 74
0
 49
-6.3499999999999996
 74
0
 49
0.0
 74
0
 49
-6.3499999999999996
 74
0
  0
LTYPE
  5
38
100
AcDbSymbolTableRecord
100
AcDbLinetypeTableRecord
  2
DASHDOT2
 70
0
  3
Dash dot (.5x) _._._._._._._._._._._._._._._.
 72
65
 73
4
 40
12.6999999999999993
 49
6.3499999999999996
 74
0
 49
-3.1749999999999998
 74
0
 49
0.0
 74
0
 49
-3.1749999999999998
 74
0
  0
LTYPE
  5
39
100
AcDbSymbolTableRecord
100
AcDbLinetypeTableRecord
  2
DASHDOTX2
 70
0
  3
Dash dot (2x) ____  .  ____  .  ____  .  ___
 72
65
 73
4
 40
50.7999999999999972
 49
25.3999999999999986
 74
0
 49
-12.6999999999999993
 74
0
 49
0.0
 74
0
 49
-12.6999999999999993
 74
0
  0
LTYPE
  5
3A
100
AcDbSymbolTableRecord
100
AcDbLinetypeTableRecord
  2
DIVIDE
 70
0
  3
Divide ____ . . ____ . . ____ . . ____ . . ____
 72
65
 73
6
 40
31.75
 49
12.6999999999999993
 74
0
 49
-6.3499999999999996
 74
0
 49
0.0
 74
0
 49
-6.3499999999999996
 74
0
 49
0.0
 74
0
 49
-6.3499999999999996
 74
0
  0
LTYPE
  5
3B
100
AcDbSymbolTableRecord
100
AcDbLinetypeTableRecord
  2
DIVIDE2
 70
0
  3
Divide (.5x) __..__..__..__..__..__..__..__.._
 72
65
 73
6
 40
15.875
 49
6.3499999999999996
 74
0
 49
-3.1749999999999998
 74
0
 49
0.0
 74
0
 49
-3.1749999999999998
 74
0
 49
0.0
 74
0
 49
-3.1749999999999998
 74
0
  0
LTYPE
  5
3C
100
AcDbSymbolTableRecord
100
AcDbLinetypeTableRecord
  2
DIVIDEX2
 70
0
  3
Divide (2x) ________  .  .  ________  .  .  _
 72
65
 73
6
 40
63.5
 49
25.3999999999999986
 74
0
 49
-12.6999999999999993
 74
0
 49
0.0
 74
0
 49
-12.6999999999999993
 74
0
 49
0.0
 74
0
 49
-12.6999999999999993
 74
0
  0
LTYPE
  5
3D
100
AcDbSymbolTableRecord
100
AcDbLinetypeTableRecord
  2
CENTER
 70
0
  3
Center ____ _ ____ _ ____ _ ____ _ ____ _ ____
 72
65
 73
4
 40
50.7999999999999972
 49
31.75
 74
0
 49
-6.3499999999999996
 74
0
 49
6.3499999999999996
 74
0
 49
-6.3499999999999996
 74
0
  0
LTYPE
  5
3E
100
AcDbSymbolTableRecord
100
AcDbLinetypeTableRecord
  2
CENTER2
 70
0
  3
Center (.5x) ___ _ ___ _ ___ _ ___ _ ___ _ ___
 72
65
 73
4
 40
28.5749999999999993
 49
19.0500000000000007
 74
0
 49
-3.1749999999999998
 74
0
 49
3.1749999999999998
 74
0
 49
-3.1749999999999998
 74
0
  0
LTYPE
  5
3F
100
AcDbSymbolTableRecord
100
AcDbLinetypeTableRecord
  2
CENTERX2
 70
0
  3
Center (2x) ________  __  ________  __  _____
 72
65
 73
4
 40
101.5999999999999943
 49
63.5
 74
0
 49
-12.6999999999999993
 74
0
 49
12.6999999999999993
 74
0
 49
-12.6999999999999993
 74
0
  0
LTYPE
  5
40
100
AcDbSymbolTableRecord
100
AcDbLinetypeTableRecord
  2
BORDER
 70
0
  3
Border __ __ . __ __ . __ __ . __ __ . __ __ .
 72
65
 73
6
 40
44.4500000000000028
 49
12.6999999999999993
 74
0
 49
-6.3499999999999996
 74
0
 49
12.6999999999999993
 74
0
 49
-6.3499999999999996
 74
0
 49
0.0
 74
0
 49
-6.3499999999999996
 74
0
  0
LTYPE
  5
41
100
AcDbSymbolTableRecord
100
AcDbLinetypeTableRecord
  2
BORDER2
 70
0
  3
Border (.5x) __.__.__.__.__.__.__.__.__.__.__.
 72
65
 73
6
 40
22.2250000000000014
 49
6.3499999999999996
 74
0
 49
-3.1749999999999998
 74
0
 49
6.3499999999999996
 74
0
 49
-3.1749999999999998
 74
0
 49
0.0
 74
0
 49
-3.1749999999999998
 74
0
  0
LTYPE
  5
42
100
AcDbSymbolTableRecord
100
AcDbLinetypeTableRecord
  2
BORDERX2
 70
0
  3
Border (2x) ____  ____  .  ____  ____  .  ___
 72
65
 73
6
 40
88.9000000000000057
 49
25.3999999999999986
 74
0
 49
-12.6999999999999993
 74
0
 49
25.3999999999999986
 74
0
 49
-12.6999999999999993
 74
0
 49
0.0
 74
0
 49
-12.6999999999999993
 74
0
  0
ENDTAB
  0
TABLE
  2
LAYER
  5
2
100
AcDbSymbolTable
 70
7
  0
LAYER
  5
10
100
AcDbSymbolTableRecord
100
AcDbLayerTableRecord
  2
0
 70
0
 62
7
  6
CONTINUOUS
370
0
390
F
  0
LAYER
  5
43
100
AcDbSymbolTableRecord
100
AcDbLayerTableRecord
  2
01axes
 70
0
 62
2
  6
DASHDOT
390
F
  0
LAYER
  5
44
100
AcDbSymbolTableRecord
100
AcDbLayerTableRecord
  2
02 traits fins
 70
0
 62
3
  6
CONTINUOUS
390
F
  0
LAYER
  5
45
100
AcDbSymbolTableRecord
100
AcDbLayerTableRecord
  2
04traits forts
 70
0
 62
7
  6
CONTINUOUS
390
F
  0
LAYER
  5
46
100
AcDbSymbolTableRecord
100
AcDbLayerTableRecord
  2
_stretch_lr_35
 70
0
 62
1
  6
CONTINUOUS
390
F
  0
LAYER
  5
47
100
AcDbSymbolTableRecord
100
AcDbLayerTableRecord
  2
03 trait caches
 70
0
 62
3
  6
CONTINUOUS
390
F
  0
LAYER
  5
48
100
AcDbSymbolTableRecord
100
AcDbLayerTableRecord
  2
00
 70
0
 62
7
  6
CONTINUOUS
390
F
  0
ENDTAB
  0
TABLE
  2
STYLE
  5
3
100
AcDbSymbolTable
 70
1
  0
STYLE
  5
11
100
AcDbSymbolTableRecord
100
AcDbTextStyleTableRecord
  2
Standard
 70
0
 40
0.0
 41
0.75
 50
0.0
 71
0
 42
2.5
  3
txt
  4

  0
ENDTAB
  0
TABLE
  2
VIEW
  5
6
100
AcDbSymbolTable
 70
0
  0
ENDTAB
  0
TABLE
  2
UCS
  5
7
100
AcDbSymbolTable
 70
0
  0
ENDTAB
  0
TABLE
  2
APPID
  5
9
100
AcDbSymbolTable
 70
1
  0
APPID
  5
12
100
AcDbSymbolTableRecord
100
AcDbRegAppTableRecord
  2
ACAD
 70
0
  0
ENDTAB
  0
TABLE
  2
DIMSTYLE
  5
A
100
AcDbSymbolTable
 70
1
100
AcDbDimStyleTable
 71
0
  0
DIMSTYLE
105
27
100
AcDbSymbolTableRecord
100
AcDbDimStyleTableRecord
  2
Standard
 41
0.25
 42
0.0625
 43
3.75
 44
0.125
 70
0
 73
0
 74
0
 77
1
 78
8
140
0.25
141
2.5
143
0.03937007874016
147
0.0625
171
3
172
1
271
2
272
2
274
3
278
44
283
0
284
8
340
11
  0
ENDTAB
  0
TABLE
  2
BLOCK_RECORD
  5
1
100
AcDbSymbolTable
 70
1
  0
BLOCK_RECORD
  5
1F
100
AcDbSymbolTableRecord
100
AcDbBlockTableRecord
  2
*Model_Space
340
22
  0
BLOCK_RECORD
  5
1B
100
AcDbSymbolTableRecord
100
AcDbBlockTableRecord
  2
*Paper_Space
340
1E
  0
BLOCK_RECORD
  5
23
100
AcDbSymbolTableRecord
100
AcDbBlockTableRecord
  2
*Paper_Space0
340
26
  0
BLOCK_RECORD
  5
49
100
AcDbSymbolTableRecord
100
AcDbBlockTableRecord
  2
Escalador
340
0
  0
BLOCK_RECORD
  5
4A
100
AcDbSymbolTableRecord
100
AcDbBlockTableRecord
  2
Suelo
340
0
  0
BLOCK_RECORD
  5
4B
100
AcDbSymbolTableRecord
100
AcDbBlockTableRecord
  2
Pared
340
0
  0
BLOCK_RECORD
  5
4C
100
AcDbSymbolTableRecord
100
AcDbBlockTableRecord
  2
Techo
340
0
  0
BLOCK_RECORD
  5
4D
100
AcDbSymbolTableRecord
100
AcDbBlockTableRecord
  2
Chc-M6a-L35-L60-0
340
0
  0
ENDTAB
  0
ENDSEC
  0
SECTION
  2
BLOCKS
  0
BLOCK
  5
20
100
AcDbEntity
  8
0
100
AcDbBlockBegin
  2
*Model_Space
 70
0
 10
0.0
 20
0.0
 30
0.0
  3
*Model_Space
  1

  0
ENDBLK
  5
21
100
AcDbEntity
  8
0
100
AcDbBlockEnd
  0
BLOCK
  5
1C
100
AcDbEntity
 67
1
  8
0
100
AcDbBlockBegin
  2
*Paper_Space
 70
0
 10
0.0
 20
0.0
 30
0.0
  3
*Paper_Space
  1

  0
ENDBLK
  5
1D
100
AcDbEntity
 67
1
  8
0
100
AcDbBlockEnd
  0
BLOCK
  5
24
100
AcDbEntity
  8
0
100
AcDbBlockBegin
  2
*Paper_Space0
 70
0
 10
0.0
 20
0.0
 30
0.0
  3
*Paper_Space0
  1

  0
ENDBLK
  5
25
100
AcDbEntity
  8
0
100
AcDbBlockEnd
  0
BLOCK
  5
4E
100
AcDbEntity
  8
0
100
AcDbBlockBegin
  2
Escalador
 70
0
 10
0.0
 20
0.0
 30
0.0
  3
Escalador
  1

  0
LINE
  5
4F
100
AcDbEntity
100
AcDbLine
  8
0
 62
256
370
-1
  6
ByLayer
 10
9.6634199999998316
 20
139.7479200000008177
 30
0.0
 11
9.0327943981955059
 21
121.6043318655804342
 31
0.0
  0
LINE
  5
50
100
AcDbEntity
100
AcDbLine
  8
0
 62
0
370
-1
  6
ByBlock
 10
-17.4179924194235412
 20
107.901635755560747
 30
0.0
 11
-19.3893633765677578
 21
108.6324786895293215
 31
0.0
  0
LINE
  5
51
100
AcDbEntity
100
AcDbLine
  8
0
 62
0
370
-1
  6
ByBlock
 10
-22.8008154402865273
 20
116.0635668900951032
 30
0.0
 11
-18.4373625978222719
 21
117.2488054520719061
 31
0.0
  0
LINE
  5
52
100
AcDbEntity
100
AcDbLine
  8
0
 62
0
370
-1
  6
ByBlock
 10
-18.4373625978222719
 20
117.2488054520719061
 30
0.0
 11
-19.7331800821872321
 21
118.2897803918355066
 31
0.0
  0
LINE
  5
53
100
AcDbEntity
100
AcDbLine
  8
0
 62
0
370
-1
  6
ByBlock
 10
-19.7331800821872321
 20
118.2897803918355066
 30
0.0
 11
-15.6798592455158143
 21
120.1505724265923618
 31
0.0
  0
LINE
  5
54
100
AcDbEntity
100
AcDbLine
  8
0
 62
0
370
-1
  6
ByBlock
 10
-4.0511865860690079
 20
119.7635461982387142
 30
0.0
 11
9.1045090306673444
 21
123.6676175156912905
 31
0.0
  0
LINE
  5
55
100
AcDbEntity
100
AcDbLine
  8
0
 62
0
370
-1
  6
ByBlock
 10
6.5682992040811428
 20
110.9738461769992597
 30
0.0
 11
4.2886928705029277
 21
110.5053506627463094
 31
0.0
  0
LINE
  5
56
100
AcDbEntity
100
AcDbLine
  8
0
 62
0
370
-1
  6
ByBlock
 10
4.2886928705029277
 20
110.5053506627463094
 30
0.0
 11
-0.6950239835432797
 21
110.6712190463266694
 31
0.0
  0
LINE
  5
57
100
AcDbEntity
100
AcDbLine
  8
0
 62
0
370
-1
  6
ByBlock
 10
-0.6950239835432797
 20
110.6712190463266694
 30
0.0
 11
-4.0727913474346735
 21
109.1205590173603923
 31
0.0
  0
LINE
  5
58
100
AcDbEntity
100
AcDbLine
  8
0
 62
0
370
-1
  6
ByBlock
 10
-4.0727913474346735
 20
109.1205590173603923
 30
0.0
 11
-6.0441623045744564
 21
109.8514019513334006
 31
0.0
  0
LINE
  5
59
100
AcDbEntity
100
AcDbLine
  8
0
 62
0
370
-1
  6
ByBlock
 10
-6.0441623045744564
 20
109.8514019513334006
 30
0.0
 11
-8.1045074227404541
 21
117.9027541634833369
 31
0.0
  0
LINE
  5
5A
100
AcDbEntity
100
AcDbLine
  8
0
 62
0
370
-1
  6
ByBlock
 10
-8.1045074227404541
 20
117.9027541634833369
 30
0.0
 11
-7.6501117947336752
 21
111.5679303638770676
 31
0.0
  0
LINE
  5
5B
100
AcDbEntity
100
AcDbLine
  8
0
 62
0
370
-1
  6
ByBlock
 10
-7.6501117947336752
 20
111.5679303638770676
 30
0.0
 11
-13.0545395769622417
 21
109.0868743175345799
 31
0.0
  0
LINE
  5
5C
100
AcDbEntity
100
AcDbLine
  8
0
 62
0
370
-1
  6
ByBlock
 10
-13.0545395769622417
 20
109.0868743175345799
 30
0.0
 11
-17.4179924194235412
 21
107.901635755560747
 31
0.0
  0
LINE
  5
5D
100
AcDbEntity
100
AcDbLine
  8
0
 62
0
370
-1
  6
ByBlock
 10
-15.6798592455158143
 20
120.1505724265923618
 30
0.0
 11
-12.4126708040095082
 21
118.378754552855753
 31
0.0
  0
LINE
  5
5E
100
AcDbEntity
100
AcDbLine
  8
0
 62
0
370
-1
  6
ByBlock
 10
-12.4126708040095082
 20
118.378754552855753
 30
0.0
 11
-8.1045074227404541
 21
117.9027541634833369
 31
0.0
  0
LINE
  5
5F
100
AcDbEntity
100
AcDbLine
  8
0
 62
0
370
-1
  6
ByBlock
 10
-8.1045074227404541
 20
117.9027541634833369
 30
0.0
 11
-4.0511865860690079
 21
119.7635461982387142
 31
0.0
  0
LINE
  5
60
100
AcDbEntity
100
AcDbLine
  8
0
 62
0
370
-1
  6
ByBlock
 10
9.6634199999998884
 20
97.3775400000002946
 30
0.0
 11
10.5028588329959121
 21
100.1977941082982539
 31
0.0
  0
LINE
  5
61
100
AcDbEntity
100
AcDbLine
  8
0
 62
0
370
-1
  6
ByBlock
 10
30.7760086755753264
 20
110.682766501783945
 30
0.0
 11
32.3891308589533082
 21
116.3662268035212719
 31
0.0
  0
LINE
  5
62
100
AcDbEntity
100
AcDbLine
  8
0
 62
0
370
-1
  6
ByBlock
 10
30.7760086755753264
 20
110.682766501783945
 30
0.0
 11
10.6217207189186809
 21
100.2272083118747332
 31
0.0
  0
LINE
  5
63
100
AcDbEntity
100
AcDbLine
  8
0
 62
0
370
-1
  6
ByBlock
 10
0.0754545143163341
 20
106.8637769331843401
 30
0.0
 11
20.2362012025456863
 21
119.6258356077599956
 31
0.0
  0
LINE
  5
64
100
AcDbEntity
100
AcDbLine
  8
0
 62
0
370
-1
  6
ByBlock
 10
20.2362012025456863
 20
119.6258356077599956
 30
0.0
 11
15.3020611158985105
 21
139.3747876693018952
 31
0.0
  0
LINE
  5
65
100
AcDbEntity
100
AcDbLine
  8
0
 62
0
370
-1
  6
ByBlock
 10
-3.3177788443427971
 20
103.9693125310401456
 30
0.0
 11
0.0754545143163341
 21
106.8637769331843401
 31
0.0
  0
LINE
  5
66
100
AcDbEntity
100
AcDbLine
  8
0
 62
0
370
-1
  6
ByBlock
 10
-7.5927055109646915
 20
103.2538755419199106
 30
0.0
 11
-3.3177788443427971
 21
103.9693125310401456
 31
0.0
  0
LINE
  5
67
100
AcDbEntity
100
AcDbLine
  8
0
 62
0
370
-1
  6
ByBlock
 10
-11.2189651250556039
 20
104.0687989132897115
 30
0.0
 11
-7.5927055109646915
 21
103.2538755419199106
 31
0.0
  0
LINE
  5
68
100
AcDbEntity
100
AcDbLine
  8
0
 62
0
370
-1
  6
ByBlock
 10
-14.6121984837212153
 20
101.1743345111440107
 30
0.0
 11
-11.2189651250556039
 21
104.0687989132897115
 31
0.0
  0
LINE
  5
69
100
AcDbEntity
100
AcDbLine
  8
0
 62
0
370
-1
  6
ByBlock
 10
-13.081838123227584
 20
100.5256674586145067
 30
0.0
 11
-14.6121984837212153
 21
101.1743345111440107
 31
0.0
  0
LINE
  5
6A
100
AcDbEntity
100
AcDbLine
  8
0
 62
0
370
-1
  6
ByBlock
 10
-16.9574822155774427
 20
98.1967419495819058
 30
0.0
 11
-13.081838123227584
 21
100.5256674586145067
 31
0.0
  0
LINE
  5
6B
100
AcDbEntity
100
AcDbLine
  8
0
 62
0
370
-1
  6
ByBlock
 10
-16.5581996413046681
 20
96.5832534296709895
 30
0.0
 11
-16.9574822155774427
 21
98.1967419495819058
 31
0.0
  0
LINE
  5
6C
100
AcDbEntity
100
AcDbLine
  8
0
 62
0
370
-1
  6
ByBlock
 10
-15.0278392808153569
 20
95.9345863771444556
 30
0.0
 11
-16.5581996413046681
 21
96.5832534296709895
 31
0.0
  0
LINE
  5
6D
100
AcDbEntity
100
AcDbLine
  8
0
 62
0
370
-1
  6
ByBlock
 10
-14.6285567065454813
 20
94.3210978572305976
 30
0.0
 11
-15.0278392808153569
 21
95.9345863771444556
 31
0.0
  0
LINE
  5
6E
100
AcDbEntity
100
AcDbLine
  8
0
 62
0
370
-1
  6
ByBlock
 10
-13.5806070797447376
 20
94.2379696978126873
 30
0.0
 11
-14.6285567065454813
 21
94.3210978572305976
 31
0.0
  0
LINE
  5
6F
100
AcDbEntity
100
AcDbLine
  8
0
 62
0
370
-1
  6
ByBlock
 10
-13.6534939408920764
 20
93.0561652110019395
 30
0.0
 11
-13.5806070797447376
 21
94.2379696978126873
 31
0.0
  0
LINE
  5
70
100
AcDbEntity
100
AcDbLine
  8
0
 62
0
370
-1
  6
ByBlock
 10
-12.2016429653667444
 20
93.0739766167259859
 30
0.0
 11
-13.6534939408920764
 21
93.0561652110019395
 31
0.0
  0
LINE
  5
71
100
AcDbEntity
100
AcDbLine
  8
0
 62
0
370
-1
  6
ByBlock
 10
-11.6509641449835044
 20
91.975814125372267
 30
0.0
 11
-12.2016429653667444
 21
93.0739766167259859
 31
0.0
  0
LINE
  5
72
100
AcDbEntity
100
AcDbLine
  8
0
 62
0
370
-1
  6
ByBlock
 10
-9.5550648913819884
 20
91.8095578065305205
 30
0.0
 11
-11.6509641449835044
 21
91.975814125372267
 31
0.0
  0
LINE
  5
73
100
AcDbEntity
100
AcDbLine
  8
0
 62
0
370
-1
  6
ByBlock
 10
-5.6794207990321013
 20
94.1384833155660772
 30
0.0
 11
-9.5550648913819884
 21
91.8095578065305205
 31
0.0
  0
LINE
  5
74
100
AcDbEntity
100
AcDbLine
  8
0
 62
0
370
-1
  6
ByBlock
 10
-1.1551096541460879
 20
97.9977691850872361
 30
0.0
 11
-5.6794207990321013
 21
94.1384833155660772
 31
0.0
  0
LINE
  5
75
100
AcDbEntity
100
AcDbLine
  8
0
 62
0
370
-1
  6
ByBlock
 10
-3.3177788443427971
 20
103.9693125310401456
 30
0.0
 11
-1.1551096541460879
 21
97.9977691850872361
 31
0.0
  0
LINE
  5
76
100
AcDbEntity
100
AcDbLine
  8
0
 62
0
370
-1
  6
ByBlock
 10
0.857661440033894
 20
96.7835632394491086
 30
0.0
 11
-3.3177788443427971
 21
103.9693125310401456
 31
0.0
  0
LINE
  5
77
100
AcDbEntity
100
AcDbLine
  8
0
 62
0
370
-1
  6
ByBlock
 10
2.9535606936355236
 20
96.6173069206103037
 30
0.0
 11
0.857661440033894
 21
96.7835632394491086
 31
0.0
  0
LINE
  5
78
100
AcDbEntity
100
AcDbLine
  8
0
 62
0
370
-1
  6
ByBlock
 10
5.7812551591867987
 20
99.0293605890623212
 30
0.0
 11
2.9535606936355236
 21
96.6173069206103037
 31
0.0
  0
LINE
  5
79
100
AcDbEntity
100
AcDbLine
  8
0
 62
0
370
-1
  6
ByBlock
 10
10.6217207189186809
 20
100.2272083118747332
 30
0.0
 11
5.7812551591867987
 21
99.0293605890623212
 31
0.0
  0
LWPOLYLINE
  5
7A
  8
0
 62
0
370
-1
  6
ByBlock
100
AcDbEntity
100
AcDbPolyline
 90
6
 70
0
 10
33.4502999999993165
 20
77.1996640909552525
 10
32.706959999999782
 20
62.4405600000004597
 10
31.6528627723853901
 20
46.0870800000001282
 10
33.4502999999994017
 20
31.9636200000004429
 10
32.7069599999999525
 20
17.8401600000007612
 10
33.8219700000009311
 20
6.6900600000093107
  0
LWPOLYLINE
  5
7B
  8
0
 62
0
370
-1
  6
ByBlock
100
AcDbEntity
100
AcDbPolyline
 90
4
 70
0
 10
33.8219700000032333
 20
6.6900599999723624
 10
34.1936399999995615
 20
2.2300200000006214
 10
34.9369799999991528
 20
0.0150683160339611
 10
31.220280000000912
 20
-0.0000000000000284
  0
LWPOLYLINE
  5
7C
  8
0
 62
0
370
-1
  6
ByBlock
100
AcDbEntity
100
AcDbPolyline
 90
6
 70
0
 10
23.4122380919271791
 20
172.1757530614241887
 10
16.3534800000010137
 20
169.4815200000006143
 10
10.4067599999992808
 20
167.2514999999999645
 10
7.471286156382007
 20
166.8915851019670527
 10
3.0112461563843453
 20
166.148245101966836
 10
1.5245661563802742
 20
166.148245101966836
  0
LWPOLYLINE
  5
7D
  8
0
 62
0
370
-1
  6
ByBlock
100
AcDbEntity
100
AcDbPolyline
 90
5
 70
0
 10
24.8989180919239459
 20
172.9190930614244053
 10
24.8989180919239743
 20
170.6890730614237555
 10
24.1555780919244114
 20
168.4590530614231056
 10
25.2735600000014529
 20
165.7648200000024872
 10
27.5035799999976689
 20
162.7914600000001428
  0
LINE
  5
7E
100
AcDbEntity
100
AcDbLine
  8
0
 62
0
370
-1
  6
ByBlock
 10
22.3676691192048338
 20
161.2323431554531226
 30
0.0
 11
28.9902600000017401
 21
163.5348000000003594
 31
0.0
  0
LINE
  5
7F
100
AcDbEntity
100
AcDbLine
  8
0
 62
0
370
-1
  6
ByBlock
 10
28.9902600000017401
 20
163.5348000000003594
 30
0.0
 11
30.4769400000015196
 21
159.8181000000007543
 31
0.0
  0
LINE
  5
80
100
AcDbEntity
100
AcDbLine
  8
0
 62
0
370
-1
  6
ByBlock
 10
30.4769400000015196
 20
159.8181000000007543
 30
0.0
 11
36.4236600000002682
 21
150.898019999999633
 31
0.0
  0
LINE
  5
81
100
AcDbEntity
100
AcDbLine
  8
0
 62
0
370
-1
  6
ByBlock
 10
36.4236600000002682
 20
150.898019999999633
 30
0.0
 11
40.1403599999984237
 21
141.9779400000029455
 31
0.0
  0
LINE
  5
82
100
AcDbEntity
100
AcDbLine
  8
0
 62
0
370
-1
  6
ByBlock
 10
40.1403599999984237
 20
141.9779400000029455
 30
0.0
 11
40.8837000000008857
 21
136.0312199999997347
 31
0.0
  0
LINE
  5
83
100
AcDbEntity
100
AcDbLine
  8
0
 62
0
370
-1
  6
ByBlock
 10
40.8837000000008857
 20
136.0312199999997347
 30
0.0
 11
37.9103399999999908
 21
126.3677999999998747
 31
0.0
  0
LINE
  5
84
100
AcDbEntity
100
AcDbLine
  8
0
 62
0
370
-1
  6
ByBlock
 10
37.9103399999999908
 20
126.3677999999998747
 30
0.0
 11
34.1936399999995615
 21
115.9610399999997981
 31
0.0
  0
LINE
  5
85
100
AcDbEntity
100
AcDbLine
  8
0
 62
0
370
-1
  6
ByBlock
 10
34.1936399999995615
 20
115.9610399999997981
 30
0.0
 11
34.1936399999995899
 21
107.7843000000003713
 31
0.0
  0
LINE
  5
86
100
AcDbEntity
100
AcDbLine
  8
0
 62
0
370
-1
  6
ByBlock
 10
34.1936399999995899
 20
107.7843000000003713
 30
0.0
 11
32.7069599999998957
 21
104.8109400000009828
 31
0.0
  0
LINE
  5
87
100
AcDbEntity
100
AcDbLine
  8
0
 62
0
370
-1
  6
ByBlock
 10
32.7069599999998957
 20
104.8109400000009828
 30
0.0
 11
23.6645553561601218
 21
104.8109400000009828
 31
0.0
  0
LINE
  5
88
100
AcDbEntity
100
AcDbLine
  8
0
 62
0
370
-1
  6
ByBlock
 10
23.6645553561601218
 20
104.8109400000009828
 30
0.0
 11
31.2202800000010257
 21
104.8109400000009828
 31
0.0
  0
LINE
  5
89
100
AcDbEntity
100
AcDbLine
  8
0
 62
0
370
-1
  6
ByBlock
 10
31.2202800000010257
 20
104.8109400000009828
 30
0.0
 11
31.9636200000004465
 21
100.3509000000011611
 31
0.0
  0
LINE
  5
8A
100
AcDbEntity
100
AcDbLine
  8
0
 62
0
370
-1
  6
ByBlock
 10
31.9636200000004465
 20
100.3509000000011611
 30
0.0
 11
36.4236600000002397
 21
92.9175000000004587
 31
0.0
  0
LINE
  5
8B
100
AcDbEntity
100
AcDbLine
  8
0
 62
0
370
-1
  6
ByBlock
 10
36.4236600000002397
 20
92.9175000000004587
 30
0.0
 11
36.4236600000002113
 21
90.6874800000012868
 31
0.0
  0
LINE
  5
8C
100
AcDbEntity
100
AcDbLine
  8
0
 62
0
370
-1
  6
ByBlock
 10
36.4236600000002113
 20
90.6874800000012868
 30
0.0
 11
36.4236600000002113
 21
83.9974200000022932
 31
0.0
  0
LINE
  5
8D
100
AcDbEntity
100
AcDbLine
  8
0
 62
0
370
-1
  6
ByBlock
 10
36.4236600000002113
 20
83.9974200000022932
 30
0.0
 11
32.706959999999782
 21
75.0773399999996798
 31
0.0
  0
LINE
  5
8E
100
AcDbEntity
100
AcDbLine
  8
0
 62
0
370
-1
  6
ByBlock
 10
32.706959999999782
 20
75.0773399999996798
 30
0.0
 11
30.4769400000014627
 21
70.6172999999998865
 31
0.0
  0
LINE
  5
8F
100
AcDbEntity
100
AcDbLine
  8
0
 62
0
370
-1
  6
ByBlock
 10
30.4769400000014627
 20
70.6172999999998865
 30
0.0
 11
28.9902600000017401
 21
57.980520000000638
 31
0.0
  0
LINE
  5
90
100
AcDbEntity
100
AcDbLine
  8
0
 62
0
370
-1
  6
ByBlock
 10
28.9902600000017401
 20
57.980520000000638
 30
0.0
 11
26.7602400000003513
 21
51.2904600000001665
 31
0.0
  0
LINE
  5
91
100
AcDbEntity
100
AcDbLine
  8
0
 62
0
370
-1
  6
ByBlock
 10
26.7602400000003513
 20
51.2904600000001665
 30
0.0
 11
25.9936238344618005
 21
47.5737600000005614
 31
0.0
  0
LINE
  5
92
100
AcDbEntity
100
AcDbLine
  8
0
 62
0
370
-1
  6
ByBlock
 10
25.9936238344618005
 20
47.5737600000005614
 30
0.0
 11
23.8128785240793377
 21
41.6270400000003065
 31
0.0
  0
LINE
  5
93
100
AcDbEntity
100
AcDbLine
  8
0
 62
0
370
-1
  6
ByBlock
 10
23.8128785240793377
 20
41.6270400000003065
 30
0.0
 11
28.191701494230017
 21
31.2202800000002263
 31
0.0
  0
LINE
  5
94
100
AcDbEntity
100
AcDbLine
  8
0
 62
0
370
-1
  6
ByBlock
 10
28.191701494230017
 20
31.2202800000002263
 30
0.0
 11
30.4769400000014912
 21
21.5568600000003663
 31
0.0
  0
LINE
  5
95
100
AcDbEntity
100
AcDbLine
  8
0
 62
0
370
-1
  6
ByBlock
 10
30.4769400000014912
 20
21.5568600000003663
 30
0.0
 11
31.2202800000009688
 21
14.8667999999998983
 31
0.0
  0
LINE
  5
96
100
AcDbEntity
100
AcDbLine
  8
0
 62
0
370
-1
  6
ByBlock
 10
31.2202800000009688
 20
14.8667999999998983
 30
0.0
 11
30.4769400000015196
 21
10.4067600000000482
 31
0.0
  0
LINE
  5
97
100
AcDbEntity
100
AcDbLine
  8
0
 62
0
370
-1
  6
ByBlock
 10
13.3801199999979019
 20
10.4067600000000482
 30
0.0
 11
11.8934400000012204
 21
13.380120000000943
 31
0.0
  0
LINE
  5
98
100
AcDbEntity
100
AcDbLine
  8
0
 62
0
370
-1
  6
ByBlock
 10
11.8934400000012204
 20
13.380120000000943
 30
0.0
 11
8.9200800000003255
 21
22.3002000000005829
 31
0.0
  0
LINE
  5
99
100
AcDbEntity
100
AcDbLine
  8
0
 62
0
370
-1
  6
ByBlock
 10
8.9200800000003255
 20
22.3002000000005829
 30
0.0
 11
5.2033799999999815
 21
31.2202800000002263
 31
0.0
  0
LINE
  5
9A
100
AcDbEntity
100
AcDbLine
  8
0
 62
0
370
-1
  6
ByBlock
 10
5.2033799999999815
 20
31.2202800000002263
 30
0.0
 11
2.2300200000015025
 21
39.3970200000025841
 31
0.0
  0
LINE
  5
9B
100
AcDbEntity
100
AcDbLine
  8
0
 62
0
370
-1
  6
ByBlock
 10
2.2300200000015025
 20
39.3970200000025841
 30
0.0
 11
0.7433399999994492
 21
46.0870800000000997
 31
0.0
  0
LINE
  5
9C
100
AcDbEntity
100
AcDbLine
  8
0
 62
0
370
-1
  6
ByBlock
 10
0.7433399999994492
 20
46.0870800000000997
 30
0.0
 11
1.614449360922606
 21
55.0071599999997716
 31
0.0
  0
LINE
  5
9D
100
AcDbEntity
100
AcDbLine
  8
0
 62
0
370
-1
  6
ByBlock
 10
1.614449360922606
 20
55.0071599999997716
 30
0.0
 11
3.7167000000002872
 21
63.1839000000006479
 31
0.0
  0
LINE
  5
9E
100
AcDbEntity
100
AcDbLine
  8
0
 62
0
370
-1
  6
ByBlock
 10
3.7167000000002872
 20
63.1839000000006479
 30
0.0
 11
5.9467199999995444
 21
72.8473200000005363
 31
0.0
  0
LINE
  5
9F
100
AcDbEntity
100
AcDbLine
  8
0
 62
0
370
-1
  6
ByBlock
 10
5.9467199999995444
 20
72.8473200000005363
 30
0.0
 11
7.4334000000006597
 21
81.024060000001441
 31
0.0
  0
LINE
  5
A0
100
AcDbEntity
100
AcDbLine
  8
0
 62
0
370
-1
  6
ByBlock
 10
7.4334000000006597
 20
81.024060000001441
 30
0.0
 11
6.6900600000011821
 21
89.775937652950347
 31
0.0
  0
LINE
  5
A1
100
AcDbEntity
100
AcDbLine
  8
0
 62
0
370
-1
  6
ByBlock
 10
6.6900600000011821
 20
89.775937652950347
 30
0.0
 11
9.6634199999998884
 21
97.3775400000002946
 31
0.0
  0
LINE
  5
A2
100
AcDbEntity
100
AcDbLine
  8
0
 62
0
370
-1
  6
ByBlock
 10
9.6634199999998316
 20
139.7479200000008177
 30
0.0
 11
13.3801199999979872
 21
146.4379799999998113
 31
0.0
  0
LINE
  5
A3
100
AcDbEntity
100
AcDbLine
  8
0
 62
0
370
-1
  6
ByBlock
 10
20.0820676323015448
 20
150.0889603565777861
 30
0.0
 11
13.3801199999979872
 21
146.4379799999998113
 31
0.0
  0
LINE
  5
A4
100
AcDbEntity
100
AcDbLine
  8
0
 62
0
370
-1
  6
ByBlock
 10
13.3801199999979872
 20
146.4379799999998113
 30
0.0
 11
14.1234599999996817
 21
152.3847000000030221
 31
0.0
  0
LINE
  5
A5
100
AcDbEntity
100
AcDbLine
  8
0
 62
0
370
-1
  6
ByBlock
 10
14.1234599999996817
 20
152.3847000000030221
 30
0.0
 11
15.6101399999994044
 21
153.8713800000004994
 31
0.0
  0
LINE
  5
A6
100
AcDbEntity
100
AcDbLine
  8
0
 62
0
370
-1
  6
ByBlock
 10
15.6101399999994044
 20
153.8713800000004994
 30
0.0
 11
12.4537921333093209
 21
156.7959041323746305
 31
0.0
  0
LINE
  5
A7
100
AcDbEntity
100
AcDbLine
  8
0
 62
0
370
-1
  6
ByBlock
 10
12.4537921333093209
 20
156.7959041323746305
 30
0.0
 11
7.2942421058395723
 21
153.9756781633905121
 31
0.0
  0
LINE
  5
A8
100
AcDbEntity
100
AcDbLine
  8
0
 62
0
370
-1
  6
ByBlock
 10
7.2942421058395723
 20
153.9756781633905121
 30
0.0
 11
5.5926318989189667
 21
157.3240213774582799
 31
0.0
  0
LINE
  5
A9
100
AcDbEntity
100
AcDbLine
  8
0
 62
0
370
-1
  6
ByBlock
 10
5.5926318989189667
 20
157.3240213774582799
 30
0.0
 11
8.3976140230728049
 21
159.3942809183071176
 31
0.0
  0
LINE
  5
AA
100
AcDbEntity
100
AcDbLine
  8
0
 62
0
370
-1
  6
ByBlock
 10
8.3976140230728049
 20
159.3942809183071176
 30
0.0
 11
5.2412661563813572
 21
157.9715051019674092
 31
0.0
  0
LINE
  5
AB
100
AcDbEntity
100
AcDbLine
  8
0
 62
0
370
-1
  6
ByBlock
 10
5.2412661563813572
 20
157.9715051019674092
 30
0.0
 11
3.8098046621495314
 21
160.6169022957627703
 31
0.0
  0
LINE
  5
AC
100
AcDbEntity
100
AcDbLine
  8
0
 62
0
370
-1
  6
ByBlock
 10
3.8098046621495314
 20
160.6169022957627703
 30
0.0
 11
0.7812261563830134
 21
160.9448651019667977
 31
0.0
  0
LINE
  5
AD
100
AcDbEntity
100
AcDbLine
  8
0
 62
0
370
-1
  6
ByBlock
 10
0.7812261563830134
 20
160.9448651019667977
 30
0.0
 11
1.3242459403053317
 21
163.3430874490167071
 31
0.0
  0
LINE
  5
AE
100
AcDbEntity
100
AcDbLine
  8
0
 62
0
370
-1
  6
ByBlock
 10
1.3242459403053317
 20
163.3430874490167071
 30
0.0
 11
2.2679061563804908
 21
165.4049051019695753
 31
0.0
  0
LINE
  5
AF
100
AcDbEntity
100
AcDbLine
  8
0
 62
0
370
-1
  6
ByBlock
 10
2.2679061563804908
 20
165.4049051019695753
 30
0.0
 11
1.5245661563802742
 21
166.148245101966836
 31
0.0
  0
LINE
  5
B0
100
AcDbEntity
100
AcDbLine
  8
0
 62
0
370
-1
  6
ByBlock
 10
1.5245661563802742
 20
166.148245101966836
 30
0.0
 11
-5.3484817103093576
 21
165.9480906630842583
 31
0.0
  0
LINE
  5
B1
100
AcDbEntity
100
AcDbLine
  8
0
 62
0
370
-1
  6
ByBlock
 10
-5.3484817103093576
 20
165.9480906630842583
 30
0.0
 11
-3.506786496799009
 21
169.1614201691442076
 31
0.0
  0
LINE
  5
B2
100
AcDbEntity
100
AcDbLine
  8
0
 62
0
370
-1
  6
ByBlock
 10
-3.506786496799009
 20
169.1614201691442076
 30
0.0
 11
-2.6274832235440044
 21
171.6965425409697446
 31
0.0
  0
LINE
  5
B3
100
AcDbEntity
100
AcDbLine
  8
0
 62
0
370
-1
  6
ByBlock
 10
-2.6274832235440044
 20
171.6965425409697446
 30
0.0
 11
-2.6844795631358238
 21
177.4504092723052509
 31
0.0
  0
LINE
  5
B4
100
AcDbEntity
100
AcDbLine
  8
0
 62
0
370
-1
  6
ByBlock
 10
-2.6844795631358238
 20
177.4504092723052509
 30
0.0
 11
-1.7043325654648243
 21
180.3995134692894453
 31
0.0
  0
LINE
  5
B5
100
AcDbEntity
100
AcDbLine
  8
0
 62
0
370
-1
  6
ByBlock
 10
-1.7043325654648243
 20
180.3995134692894453
 30
0.0
 11
-0.1914859065846031
 21
182.7772014554333282
 31
0.0
  0
LINE
  5
B6
100
AcDbEntity
100
AcDbLine
  8
0
 62
0
370
-1
  6
ByBlock
 10
-0.1914859065846031
 20
182.7772014554333282
 30
0.0
 11
4.3305671367303376
 21
185.7032955735083988
 31
0.0
  0
LINE
  5
B7
100
AcDbEntity
100
AcDbLine
  8
0
 62
0
370
-1
  6
ByBlock
 10
4.3305671367303376
 20
185.7032955735083988
 30
0.0
 11
9.66341999999986
 21
186.5783400000011625
 31
0.0
  0
LINE
  5
B8
100
AcDbEntity
100
AcDbLine
  8
0
 62
0
370
-1
  6
ByBlock
 10
9.66341999999986
 20
186.5783400000011625
 30
0.0
 11
15.1191615132346442
 21
185.570546258861782
 31
0.0
  0
LINE
  5
B9
100
AcDbEntity
100
AcDbLine
  8
0
 62
0
370
-1
  6
ByBlock
 10
15.1191615132346442
 20
185.570546258861782
 30
0.0
 11
19.5458919402481115
 21
182.8738821175430758
 31
0.0
  0
LINE
  5
BA
100
AcDbEntity
100
AcDbLine
  8
0
 62
0
370
-1
  6
ByBlock
 10
19.5458919402481115
 20
182.8738821175430758
 30
0.0
 11
22.3001999999984264
 21
179.1449400000004744
 31
0.0
  0
LINE
  5
BB
100
AcDbEntity
100
AcDbLine
  8
0
 62
0
370
-1
  6
ByBlock
 10
22.3001999999984264
 20
179.1449400000004744
 30
0.0
 11
24.5302199999968025
 21
176.1715799999996079
 31
0.0
  0
LINE
  5
BC
100
AcDbEntity
100
AcDbLine
  8
0
 62
0
370
-1
  6
ByBlock
 10
24.5302199999968025
 20
176.1715799999996079
 30
0.0
 11
28.9902600000017401
 21
175.4282400000008693
 31
0.0
  0
LINE
  5
BD
100
AcDbEntity
100
AcDbLine
  8
0
 62
0
370
-1
  6
ByBlock
 10
28.9902600000017401
 20
175.4282400000008693
 30
0.0
 11
23.4122380919271791
 21
172.1757530614241887
 31
0.0
  0
LINE
  5
BE
100
AcDbEntity
100
AcDbLine
  8
0
 62
0
370
-1
  6
ByBlock
 10
30.4769400000014343
 20
2.9733599999993601
 30
0.0
 11
31.071611999996378
 21
-0.0000000000000284
 31
0.0
  0
LINE
  5
BF
100
AcDbEntity
100
AcDbLine
  8
0
 62
0
370
-1
  6
ByBlock
 10
31.071611999996378
 20
-0.0000000000000284
 30
0.0
 11
22.7957599999982676
 21
0.0
 31
0.0
  0
LINE
  5
C0
100
AcDbEntity
100
AcDbLine
  8
0
 62
0
370
-1
  6
ByBlock
 10
22.7957600000004561
 20
-0.0000000000000284
 30
0.0
 11
20.8135200000017164
 21
1.4866800000034175
 31
0.0
  0
LINE
  5
C1
100
AcDbEntity
100
AcDbLine
  8
0
 62
0
370
-1
  6
ByBlock
 10
20.8135200000017164
 20
1.4866800000034175
 30
0.0
 11
11.8934400000013341
 21
0.0
 31
0.0
  0
LINE
  5
C2
100
AcDbEntity
100
AcDbLine
  8
0
 62
0
370
-1
  6
ByBlock
 10
11.8934400000013341
 20
0.0
 30
0.0
 11
0.0
 21
0.0
 31
0.0
  0
LINE
  5
C3
100
AcDbEntity
100
AcDbLine
  8
0
 62
0
370
-1
  6
ByBlock
 10
0.0
 20
0.0
 30
0.0
 11
2.2300200000014456
 21
2.9733599999993885
 31
0.0
  0
LINE
  5
C4
100
AcDbEntity
100
AcDbLine
  8
0
 62
0
370
-1
  6
ByBlock
 10
2.2300200000014456
 20
2.9733599999993885
 30
0.0
 11
10.4067599999993377
 21
5.9617883160312886
 31
0.0
  0
LINE
  5
C5
100
AcDbEntity
100
AcDbLine
  8
0
 62
0
370
-1
  6
ByBlock
 10
10.4067599999993377
 20
5.9617883160312886
 30
0.0
 11
16.3534800000009
 21
7.2248036732206629
 31
0.0
  0
LINE
  5
C6
100
AcDbEntity
100
AcDbLine
  8
0
 62
0
370
-1
  6
ByBlock
 10
16.3534800000009
 20
7.2248036732206629
 30
0.0
 11
13.3801199999979019
 21
7.4334000000006881
 31
0.0
  0
LINE
  5
C7
100
AcDbEntity
100
AcDbLine
  8
0
 62
0
370
-1
  6
ByBlock
 10
13.3801199999979019
 20
7.4334000000006881
 30
0.0
 11
13.3801199999978735
 21
10.3668970463372716
 31
0.0
  0
LWPOLYLINE
  5
C8
  8
0
 62
0
370
-1
  6
ByBlock
100
AcDbEntity
100
AcDbPolyline
 90
2
 70
0
 10
22.3676691192048338
 20
161.2323431554531226
 10
15.6061525914956007
 20
153.9166365759967903
  0
LINE
  5
C9
100
AcDbEntity
100
AcDbLine
  8
0
 62
0
370
-1
  6
ByBlock
 10
13.4021311155710237
 20
10.4067600000000766
 30
0.0
 11
30.4769400000015196
 21
10.4067600000000482
 31
0.0
  0
LINE
  5
CA
100
AcDbEntity
100
AcDbLine
  8
0
 62
0
370
-1
  6
ByBlock
 10
-19.3893633765677578
 20
108.6324786895293215
 30
0.0
 11
-19.6201084384383648
 21
109.8391123278235
 31
0.0
  0
LINE
  5
CB
100
AcDbEntity
100
AcDbLine
  8
0
 62
0
370
-1
  6
ByBlock
 10
-19.6201084384383648
 20
109.8391123278235
 30
0.0
 11
-21.0219176316710161
 21
110.2174236904256617
 31
0.0
  0
LINE
  5
CC
100
AcDbEntity
100
AcDbLine
  8
0
 62
0
370
-1
  6
ByBlock
 10
-21.0219176316710161
 20
110.2174236904256617
 30
0.0
 11
-20.629891399735385
 21
111.3346925806436047
 31
0.0
  0
LINE
  5
CD
100
AcDbEntity
100
AcDbLine
  8
0
 62
0
370
-1
  6
ByBlock
 10
-20.629891399735385
 20
111.3346925806436047
 30
0.0
 11
-21.6155768783074791
 21
111.7001140476315868
 31
0.0
  0
LINE
  5
CE
100
AcDbEntity
100
AcDbLine
  8
0
 62
0
370
-1
  6
ByBlock
 10
-21.6155768783074791
 20
111.7001140476315868
 30
0.0
 11
-21.5602874171145231
 21
113.361352998979342
 31
0.0
  0
LINE
  5
CF
100
AcDbEntity
100
AcDbLine
  8
0
 62
0
370
-1
  6
ByBlock
 10
-21.5602874171145231
 20
113.361352998979342
 30
0.0
 11
-22.8561049014787443
 21
114.4023279387429284
 31
0.0
  0
LINE
  5
D0
100
AcDbEntity
100
AcDbLine
  8
0
 62
0
370
-1
  6
ByBlock
 10
-22.8561049014787443
 20
114.4023279387429284
 30
0.0
 11
-22.8008154402865273
 21
116.0635668900951032
 31
0.0
  0
LINE
  5
D1
100
AcDbEntity
100
AcDbLine
  8
0
 62
256
370
-1
  6
ByLayer
 10
9.0327943981955059
 20
121.6043318655804342
 30
0.0
 11
10.2221669787726626
 21
114.0744794966169593
 31
0.0
  0
LWPOLYLINE
  5
D2
  8
0
 62
0
370
-1
  6
ByBlock
100
AcDbEntity
100
AcDbPolyline
 90
2
 70
0
 10
29.006285971741903
 20
137.1754471745107367
 10
32.3891308589533082
 20
116.3662268035212719
  0
LINE
  5
D3
100
AcDbEntity
100
AcDbLine
  8
0
 62
0
370
-1
  6
ByBlock
 10
30.4769400000015196
 20
10.4067600000000482
 30
0.0
 11
30.4769400000014343
 21
2.9733599999993601
 31
0.0
  0
LINE
  5
D4
100
AcDbEntity
100
AcDbLine
  8
0
 62
256
370
-1
  6
ByLayer
 10
30.4769400000015196
 20
10.4067600000000482
 30
0.0
 11
33.4502999999993733
 21
10.4067600000000482
 31
0.0
  0
ENDBLK
  5
D5
100
AcDbEntity
  8
0
100
AcDbBlockEnd
  0
BLOCK
  5
D6
100
AcDbEntity
  8
0
100
AcDbBlockBegin
  2
Suelo
 70
0
 10
0.0
 20
0.0
 30
0.0
  3
Suelo
  1

  0
HATCH
  5
D7
  8
0
 62
256
370
-1
  6
ByLayer
100
AcDbEntity
100
AcDbHatch
 10
0.0
 20
0.0
 30
0.0
210
0.0
220
0.0
230
1.0
  2
ansi31
 70
0
 71
0
 91
1
 92
1
 93
4
 72
1
 10
-40.0
 20
0.0
 11
400.0
 21
0.0
 72
1
 10
400.0
 20
0.0
 11
400.0
 21
-40.0
 72
1
 10
400.0
 20
-40.0
 11
-40.0
 21
-40.0
 72
1
 10
-40.0
 20
-40.0
 11
-40.0
 21
0.0
 97
0
 75
0
 76
1
 52
-0.1745329251994329
 41
10.0
 77
0
 78
1
 53
45.0
 43
0.0
 44
0.0
 45
-0.0883883476483184
 46
0.0883883476483185
 79
0
 98
0
  0
LINE
  5
D8
100
AcDbEntity
100
AcDbLine
  8
0
 62
256
370
-1
  6
ByLayer
 10
0.0
 20
0.0
 30
0.0
 11
400.0
 21
0.0
 31
0.0
  0
LINE
  5
D9
100
AcDbEntity
100
AcDbLine
  8
0
 62
256
370
-1
  6
ByLayer
 10
-40.0
 20
0.0
 30
0.0
 11
400.0
 21
0.0
 31
0.0
  0
LINE
  5
DA
100
AcDbEntity
100
AcDbLine
  8
0
 62
256
370
-1
  6
ByLayer
 10
400.0
 20
0.0
 30
0.0
 11
400.0
 21
-40.0
 31
0.0
  0
LINE
  5
DB
100
AcDbEntity
100
AcDbLine
  8
0
 62
256
370
-1
  6
ByLayer
 10
400.0
 20
-40.0
 30
0.0
 11
-40.0
 21
-40.0
 31
0.0
  0
LINE
  5
DC
100
AcDbEntity
100
AcDbLine
  8
0
 62
256
370
-1
  6
ByLayer
 10
-40.0
 20
-40.0
 30
0.0
 11
-40.0
 21
0.0
 31
0.0
  0
LINE
  5
DD
100
AcDbEntity
100
AcDbLine
  8
0
 62
256
370
-1
  6
ByLayer
 10
0.0
 20
0.0
 30
0.0
 11
-40.0
 21
0.0
 31
0.0
  0
LWPOLYLINE
  5
DE
  8
0
 62
256
370
-1
  6
ByLayer
100
AcDbEntity
100
AcDbPolyline
 90
1
 70
0
  0
ENDBLK
  5
DF
100
AcDbEntity
  8
0
100
AcDbBlockEnd
  0
BLOCK
  5
E0
100
AcDbEntity
  8
0
100
AcDbBlockBegin
  2
Pared
 70
0
 10
0.0
 20
0.0
 30
0.0
  3
Pared
  1

  0
HATCH
  5
E1
  8
0
 62
256
370
-1
  6
ByLayer
100
AcDbEntity
100
AcDbHatch
 10
0.0
 20
0.0
 30
0.0
210
0.0
220
0.0
230
1.0
  2
ansi31
 70
0
 71
0
 91
1
 92
1
 93
4
 72
1
 10
0.0
 20
0.0
 11
-40.0
 21
0.0
 72
1
 10
-40.0
 20
0.0
 11
-40.0
 21
327.3999999999999773
 72
1
 10
-40.0
 20
327.3999999999999773
 11
0.0
 21
327.3999999999999773
 72
1
 10
0.0
 20
327.3999999999999773
 11
0.0
 21
0.0
 97
0
 75
0
 76
1
 52
-0.1745329251994329
 41
10.0
 77
0
 78
1
 53
45.0
 43
0.0
 44
0.0
 45
-0.0883883476483184
 46
0.0883883476483185
 79
0
 98
0
  0
LINE
  5
E2
100
AcDbEntity
100
AcDbLine
  8
0
 62
256
370
-1
  6
ByLayer
 10
0.0
 20
327.3999999999999773
 30
0.0
 11
0.0
 21
0.0
 31
0.0
  0
LINE
  5
E3
100
AcDbEntity
100
AcDbLine
  8
0
 62
256
370
-1
  6
ByLayer
 10
0.0
 20
0.0
 30
0.0
 11
0.0
 21
327.3999999999999773
 31
0.0
  0
LINE
  5
E4
100
AcDbEntity
100
AcDbLine
  8
0
 62
256
370
-1
  6
ByLayer
 10
-40.0
 20
0.0
 30
0.0
 11
-40.0
 21
327.3999999999999773
 31
0.0
  0
LINE
  5
E5
100
AcDbEntity
100
AcDbLine
  8
0
 62
256
370
-1
  6
ByLayer
 10
-40.0
 20
327.3999999999999773
 30
0.0
 11
0.0
 21
327.3999999999999773
 31
0.0
  0
LINE
  5
E6
100
AcDbEntity
100
AcDbLine
  8
0
 62
256
370
-1
  6
ByLayer
 10
0.0
 20
327.3999999999999773
 30
0.0
 11
0.0
 21
0.0
 31
0.0
  0
ENDBLK
  5
E7
100
AcDbEntity
  8
0
100
AcDbBlockEnd
  0
BLOCK
  5
E8
100
AcDbEntity
  8
0
100
AcDbBlockBegin
  2
Techo
 70
0
 10
0.0
 20
0.0
 30
0.0
  3
Techo
  1

  0
HATCH
  5
E9
  8
0
 62
256
370
-1
  6
ByLayer
100
AcDbEntity
100
AcDbHatch
 10
0.0
 20
0.0
 30
0.0
210
0.0
220
0.0
230
1.0
  2
ansi31
 70
0
 71
0
 91
1
 92
1
 93
4
 72
1
 10
-40.0000000000000213
 20
0.0
 11
400.0
 21
0.0
 72
1
 10
400.0
 20
0.0
 11
400.0
 21
50.0
 72
1
 10
400.0
 20
50.0
 11
-40.0000000000000213
 21
50.0
 72
1
 10
-40.0000000000000213
 20
50.0
 11
-40.0000000000000213
 21
0.0
 97
0
 75
0
 76
1
 52
-0.1745329251994329
 41
10.0
 77
0
 78
1
 53
45.0
 43
0.0
 44
0.0
 45
-0.0883883476483184
 46
0.0883883476483185
 79
0
 98
0
  0
LINE
  5
EA
100
AcDbEntity
100
AcDbLine
  8
0
 62
256
370
-1
  6
ByLayer
 10
-0.00000000000002
 20
0.0
 30
0.0
 11
400.0
 21
0.0
 31
0.0
  0
LINE
  5
EB
100
AcDbEntity
100
AcDbLine
  8
0
 62
256
370
-1
  6
ByLayer
 10
-40.0000000000000213
 20
0.0
 30
0.0
 11
400.0
 21
0.0
 31
0.0
  0
LINE
  5
EC
100
AcDbEntity
100
AcDbLine
  8
0
 62
256
370
-1
  6
ByLayer
 10
400.0
 20
0.0
 30
0.0
 11
400.0
 21
50.0
 31
0.0
  0
LINE
  5
ED
100
AcDbEntity
100
AcDbLine
  8
0
 62
256
370
-1
  6
ByLayer
 10
400.0
 20
50.0
 30
0.0
 11
-40.0000000000000213
 21
50.0
 31
0.0
  0
LINE
  5
EE
100
AcDbEntity
100
AcDbLine
  8
0
 62
256
370
-1
  6
ByLayer
 10
-40.0000000000000213
 20
50.0
 30
0.0
 11
-40.0000000000000213
 21
0.0
 31
0.0
  0
LINE
  5
EF
100
AcDbEntity
100
AcDbLine
  8
0
 62
256
370
-1
  6
ByLayer
 10
101.8262086775411461
 20
-3.2655570523588722
 30
0.0
 11
103.7377639126866171
 21
-3.8537377924277507
 31
0.0
  0
LINE
  5
F0
100
AcDbEntity
100
AcDbLine
  8
0
 62
256
370
-1
  6
ByLayer
 10
102.1542787627134743
 20
-2.1993292755487914
 30
0.0
 11
98.3311627278257134
 21
-1.0229858801986893
 31
0.0
  0
ENDBLK
  5
F1
100
AcDbEntity
  8
0
100
AcDbBlockEnd
  0
BLOCK
  5
F2
100
AcDbEntity
  8
0
100
AcDbBlockBegin
  2
Chc-M6a-L35-L60-0
 70
0
 10
0.0
 20
0.0
 30
0.0
  3
Chc-M6a-L35-L60-0
  1

  0
LINE
  5
F3
100
AcDbEntity
100
AcDbLine
  8
04traits forts
 62
0
370
5
  6
CONTINUOUS
 10
0.772739300000012
 20
0.3036303999999745
 30
0.0
 11
1.1547631999999908
 21
0.3036303999999745
 31
0.0
  0
LINE
  5
F4
100
AcDbEntity
100
AcDbLine
  8
04traits forts
 62
0
370
5
  6
CONTINUOUS
 10
1.1547631999999908
 20
-0.2963695999999914
 30
0.0
 11
0.772739300000012
 21
-0.2963695999999914
 31
0.0
  0
LINE
  5
F5
100
AcDbEntity
100
AcDbLine
  8
02 traits fins
 62
7
370
0
  6
CONTINUOUS
 10
2.3927392999999881
 20
0.2586304000000155
 30
0.0
 11
2.3477393000000006
 21
0.2586304000000155
 31
0.0
  0
LINE
  5
F6
100
AcDbEntity
100
AcDbLine
  8
02 traits fins
 62
7
370
0
  6
CONTINUOUS
 10
2.3927392999999881
 20
-0.2513695999999754
 30
0.0
 11
2.3477393000000006
 21
-0.2513695999999754
 31
0.0
  0
LINE
  5
F7
100
AcDbEntity
100
AcDbLine
  8
04traits forts
 62
0
370
5
  6
CONTINUOUS
 10
2.3477393000000006
 20
0.3036303999999745
 30
0.0
 11
2.3549999999999898
 21
0.3036303999999745
 31
0.0
  0
LINE
  5
F8
100
AcDbEntity
100
AcDbLine
  8
04traits forts
 62
0
370
5
  6
CONTINUOUS
 10
2.3477393000000006
 20
-0.2963695999999914
 30
0.0
 11
2.3549999999999898
 21
-0.2963695999999914
 31
0.0
  0
LINE
  5
F9
100
AcDbEntity
100
AcDbLine
  8
02 traits fins
 62
3
370
0
  6
CONTINUOUS
 10
2.3927392999999881
 20
-0.2513695999999754
 30
0.0
 11
2.4000000000000057
 21
-0.2513695999999754
 31
0.0
  0
LINE
  5
FA
100
AcDbEntity
100
AcDbLine
  8
02 traits fins
 62
3
370
0
  6
CONTINUOUS
 10
2.3927392999999881
 20
0.2586304000000155
 30
0.0
 11
2.4000000000000057
 21
0.2586304000000155
 31
0.0
  0
LINE
  5
FB
100
AcDbEntity
100
AcDbLine
  8
03 trait caches
 62
3
370
0
  6
CONTINUOUS
 10
-0.3000000000000114
 20
0.2771281000000272
 30
0.0
 11
-0.1399999999999864
 21
0.0
 31
0.0
  0
LINE
  5
FC
100
AcDbEntity
100
AcDbLine
  8
03 trait caches
 62
3
370
0
  6
CONTINUOUS
 10
-0.3000000000000114
 20
-0.2771281000000272
 30
0.0
 11
-0.1399999999999864
 21
0.0
 31
0.0
  0
LINE
  5
FD
100
AcDbEntity
100
AcDbLine
  8
03 trait caches
 62
3
370
0
  6
CONTINUOUS
 10
-0.3000000000000114
 20
-0.2771281000000272
 30
0.0
 11
-0.3000000000000114
 21
0.2771281000000272
 31
0.0
  0
LINE
  5
FE
100
AcDbEntity
100
AcDbLine
  8
03 trait caches
 62
3
370
0
  6
CONTINUOUS
 10
-0.3000000000000114
 20
-0.2771281000000272
 30
0.0
 11
-0.5999999999999943
 21
-0.2771281000000272
 31
0.0
  0
LINE
  5
FF
100
AcDbEntity
100
AcDbLine
  8
03 trait caches
 62
3
370
0
  6
CONTINUOUS
 10
-0.3000000000000114
 20
0.2771281000000272
 30
0.0
 11
-0.5999999999999943
 21
0.2771281000000272
 31
0.0
  0
LINE
  5
100
100
AcDbEntity
100
AcDbLine
  8
03 trait caches
 62
3
370
0
  6
CONTINUOUS
 10
-0.5999999999999943
 20
0.1385640999999964
 30
0.0
 11
-0.3000000000000114
 21
0.1385640999999964
 31
0.0
  0
LINE
  5
101
100
AcDbEntity
100
AcDbLine
  8
03 trait caches
 62
3
370
0
  6
CONTINUOUS
 10
-0.5999999999999943
 20
-0.1385640999999964
 30
0.0
 11
-0.3000000000000114
 21
-0.1385640999999964
 31
0.0
  0
ARC
  5
102
100
AcDbEntity
  8
04traits forts
 62
0
370
5
  6
CONTINUOUS
100
AcDbCircle
 10
0.0300000000000011
 20
0.3336304000000041
 30
0.0
 40
0.03
100
AcDbArc
 50
180.0
 51
270.0
  0
ARC
  5
103
100
AcDbEntity
  8
04traits forts
 62
0
370
5
  6
CONTINUOUS
100
AcDbCircle
 10
0.0300000000000011
 20
-0.3263696000000209
 30
0.0
 40
0.03
100
AcDbArc
 50
90.0
 51
180.0
  0
LINE
  5
104
100
AcDbEntity
100
AcDbLine
  8
04traits forts
 62
0
370
5
  6
CONTINUOUS
 10
0.0
 20
0.3336304000000041
 30
0.0
 11
0.0
 21
-0.3263696000000209
 31
0.0
  0
LINE
  5
105
100
AcDbEntity
100
AcDbLine
  8
_stretch_lr_35
 62
1
370
0
  6
CONTINUOUS
 10
0.4034911999999906
 20
0.3954941000000076
 30
0.0
 11
0.4034911999999906
 21
-0.4089007000000038
 31
0.0
  0
ARC
  5
106
100
AcDbEntity
  8
04traits forts
 62
0
370
5
  6
CONTINUOUS
100
AcDbCircle
 10
-0.5625
 20
0.4125000000000227
 30
0.0
 40
0.0375
100
AcDbArc
 50
90.0
 51
180.0
  0
ARC
  5
107
100
AcDbEntity
  8
04traits forts
 62
0
370
5
  6
CONTINUOUS
100
AcDbCircle
 10
-0.5625
 20
-0.4125000000000227
 30
0.0
 40
0.0375
100
AcDbArc
 50
180.0
 51
270.0
  0
LINE
  5
108
100
AcDbEntity
100
AcDbLine
  8
04traits forts
 62
0
370
5
  6
CONTINUOUS
 10
-0.5999999999999943
 20
-0.4125000000000227
 30
0.0
 11
-0.5999999999999943
 21
0.4125000000000227
 31
0.0
  0
LINE
  5
109
100
AcDbEntity
100
AcDbLine
  8
04traits forts
 62
0
370
5
  6
CONTINUOUS
 10
-0.5625
 20
0.4499999999999886
 30
0.0
 11
0.0
 21
0.4499999999999886
 31
0.0
  0
LINE
  5
10A
100
AcDbEntity
100
AcDbLine
  8
04traits forts
 62
0
370
5
  6
CONTINUOUS
 10
0.0
 20
0.3336304000000041
 30
0.0
 11
0.0
 21
0.4499999999999886
 31
0.0
  0
LINE
  5
10B
100
AcDbEntity
100
AcDbLine
  8
04traits forts
 62
0
370
5
  6
CONTINUOUS
 10
-0.5625
 20
-0.4499999999999886
 30
0.0
 11
0.0
 21
-0.4499999999999886
 31
0.0
  0
LINE
  5
10C
100
AcDbEntity
100
AcDbLine
  8
04traits forts
 62
0
370
5
  6
CONTINUOUS
 10
0.0
 20
-0.4499999999999886
 30
0.0
 11
0.0
 21
-0.3263696000000209
 31
0.0
  0
LINE
  5
10D
100
AcDbEntity
100
AcDbLine
  8
00
 62
0
370
0
  6
CONTINUOUS
 10
3.5
 20
2.2306202999999982
 30
0.0
 11
3.5
 21
-2.2231600999999728
 31
0.0
  0
LINE
  5
10E
100
AcDbEntity
100
AcDbLine
  8
01axes
 62
2
370
0
  6
DASHDOT
 10
-0.6535451000000023
 20
0.0
 30
0.0
 11
3.5
 21
0.0
 31
0.0
  0
LINE
  5
10F
100
AcDbEntity
100
AcDbLine
  8
04traits forts
 62
0
370
5
  6
CONTINUOUS
 10
3.5
 20
0.2586304000000155
 30
0.0
 11
3.4550000000000125
 21
0.3036303999999745
 31
0.0
  0
LINE
  5
110
100
AcDbEntity
100
AcDbLine
  8
04traits forts
 62
0
370
5
  6
CONTINUOUS
 10
3.5
 20
0.2586304000000155
 30
0.0
 11
3.5
 21
-0.2513695999999754
 31
0.0
  0
LINE
  5
111
100
AcDbEntity
100
AcDbLine
  8
04traits forts
 62
0
370
5
  6
CONTINUOUS
 10
3.5
 20
-0.2513695999999754
 30
0.0
 11
3.4550000000000125
 21
-0.2963695999999914
 31
0.0
  0
LINE
  5
112
100
AcDbEntity
100
AcDbLine
  8
04traits forts
 62
0
370
5
  6
CONTINUOUS
 10
3.4550000000000125
 20
0.3036303999999745
 30
0.0
 11
3.4550000000000125
 21
-0.2963695999999914
 31
0.0
  0
LINE
  5
113
100
AcDbEntity
100
AcDbLine
  8
04traits forts
 62
0
370
5
  6
CONTINUOUS
 10
0.0300000000000011
 20
0.3036303999999745
 30
0.0
 11
3.4550000000000125
 21
0.3036303999999745
 31
0.0
  0
LINE
  5
114
100
AcDbEntity
100
AcDbLine
  8
04traits forts
 62
0
370
5
  6
CONTINUOUS
 10
3.4550000000000125
 20
-0.2963695999999914
 30
0.0
 11
0.0300000000000011
 21
-0.2963695999999914
 31
0.0
  0
LINE
  5
115
100
AcDbEntity
100
AcDbLine
  8
00
 62
0
370
0
  6
CONTINUOUS
 10
1.0999999999999943
 20
2.2306202999999982
 30
0.0
 11
1.0999999999999943
 21
-2.2231600999999728
 31
0.0
  0
LINE
  5
116
100
AcDbEntity
100
AcDbLine
  8
04traits forts
 62
0
370
5
  6
CONTINUOUS
 10
1.0999999999999943
 20
0.3036303999999745
 30
0.0
 11
1.0999999999999943
 21
-0.2963695999999914
 31
0.0
  0
LINE
  5
117
100
AcDbEntity
100
AcDbLine
  8
02 traits fins
 62
7
370
0
  6
CONTINUOUS
 10
1.0999999999999943
 20
0.2586304000000155
 30
0.0
 11
1.0740192000000093
 21
0.3036303999999745
 31
0.0
  0
LINE
  5
118
100
AcDbEntity
100
AcDbLine
  8
02 traits fins
 62
7
370
0
  6
CONTINUOUS
 10
1.0999999999999943
 20
-0.2513695999999754
 30
0.0
 11
1.0740192000000093
 21
-0.2963695999999914
 31
0.0
  0
LINE
  5
119
100
AcDbEntity
100
AcDbLine
  8
02 traits fins
 62
3
370
0
  6
CONTINUOUS
 10
1.0999999999999943
 20
0.2586304000000155
 30
0.0
 11
3.5
 21
0.2586304000000155
 31
0.0
  0
LINE
  5
11A
100
AcDbEntity
100
AcDbLine
  8
02 traits fins
 62
3
370
0
  6
CONTINUOUS
 10
1.0999999999999943
 20
-0.2513695999999754
 30
0.0
 11
3.5
 21
-0.2513695999999754
 31
0.0
  0
ENDBLK
  5
11B
100
AcDbEntity
  8
0
100
AcDbBlockEnd
  0
ENDSEC
  0
SECTION
  2
ENTITIES
  0
HATCH
  5
11C
  8
0
 62
256
370
-1
  6
ByLayer
100
AcDbEntity
100
AcDbHatch
 10
0.0
 20
0.0
 30
0.0
210
0.0
220
0.0
230
1.0
  2
ansi31
 70
0
 71
0
 91
1
 92
1
 93
4
 72
1
 10
101.8262086775411603
 20
324.1344429476411051
 11
48.0076709612378352
 21
149.2271389318315187
 72
1
 10
48.0076709612378352
 20
149.2271389318315187
 11
49.9192261963832919
 21
148.6389581917626401
 72
1
 10
49.9192261963832919
 20
148.6389581917626401
 11
103.7377639126866313
 21
323.5462622075722265
 72
1
 10
103.7377639126866313
 20
323.5462622075722265
 11
101.8262086775411603
 21
324.1344429476411051
 97
0
 75
0
 76
1
 52
-0.1745329251994329
 41
1.0
 77
0
 78
1
 53
45.0
 43
0.0
 44
0.0
 45
-0.0883883476483184
 46
0.0883883476483185
 79
0
 98
0
  0
LINE
  5
11D
100
AcDbEntity
100
AcDbLine
  8
0
 62
256
370
-1
  6
ByLayer
 10
101.8262086775411603
 20
324.1344429476411051
 30
0.0
 11
48.0076709612378352
 21
149.2271389318315187
 31
0.0
  0
LINE
  5
11E
100
AcDbEntity
100
AcDbLine
  8
0
 62
256
370
-1
  6
ByLayer
 10
103.7377639126866313
 20
323.5462622075722265
 30
0.0
 11
49.9192261963832919
 21
148.6389581917626401
 31
0.0
  0
LINE
  5
11F
100
AcDbEntity
100
AcDbLine
  8
0
 62
256
370
-1
  6
ByLayer
 10
49.9192261963832919
 20
148.6389581917626401
 30
0.0
 11
48.0076709612378352
 21
149.2271389318315187
 31
0.0
  0
LINE
  5
120
100
AcDbEntity
100
AcDbLine
  8
0
 62
256
370
-1
  6
ByLayer
 10
100.3045707180341282
 20
312.3885008846884261
 30
0.0
 11
103.17190819027374
 21
311.5062447879168985
 31
0.0
  0
LINE
  5
121
100
AcDbEntity
100
AcDbLine
  8
0
 62
256
370
-1
  6
ByLayer
 10
94.4228634062239394
 20
293.2729177364243469
 30
0.0
 11
97.2902008784635512
 21
292.3906616396528193
 31
0.0
  0
LINE
  5
122
100
AcDbEntity
100
AcDbLine
  8
0
 62
256
370
-1
  6
ByLayer
 10
88.5411560944137506
 20
274.1573345881602677
 30
0.0
 11
91.4084935666533624
 21
273.2750784913887401
 31
0.0
  0
LINE
  5
123
100
AcDbEntity
100
AcDbLine
  8
0
 62
256
370
-1
  6
ByLayer
 10
82.6594487826035618
 20
255.0417514398961885
 30
0.0
 11
85.5267862548431737
 21
254.1594953431246608
 31
0.0
  0
LINE
  5
124
100
AcDbEntity
100
AcDbLine
  8
0
 62
256
370
-1
  6
ByLayer
 10
76.777741470793373
 20
235.9261682916320808
 30
0.0
 11
79.6450789430329849
 21
235.0439121948605532
 31
0.0
  0
LINE
  5
125
100
AcDbEntity
100
AcDbLine
  8
0
 62
256
370
-1
  6
ByLayer
 10
70.8960341589831842
 20
216.8105851433679732
 30
0.0
 11
73.7633716312227961
 21
215.9283290465964456
 31
0.0
  0
LINE
  5
126
100
AcDbEntity
100
AcDbLine
  8
0
 62
256
370
-1
  6
ByLayer
 10
65.0143268471729954
 20
197.6950019951038655
 30
0.0
 11
67.8816643194126073
 21
196.8127458983323379
 31
0.0
  0
LINE
  5
127
100
AcDbEntity
100
AcDbLine
  8
0
 62
256
370
-1
  6
ByLayer
 10
59.1326195353628066
 20
178.5794188468397579
 30
0.0
 11
61.9999570076024185
 21
177.6971627500682303
 31
0.0
  0
LINE
  5
128
100
AcDbEntity
100
AcDbLine
  8
0
 62
256
370
-1
  6
ByLayer
 10
-0.0000000000000002
 20
6.8007352543677211
 30
0.0
 11
98.3311627278257276
 21
326.377014119801288
 31
0.0
  0
LINE
  5
129
100
AcDbEntity
100
AcDbLine
  8
0
 62
256
370
-1
  6
ByLayer
 10
2.0925339244208372
 20
0.0
 30
0.0
 11
102.1542787627135027
 21
325.2006707244512427
 31
0.0
  0
LINE
  5
12A
100
AcDbEntity
100
AcDbLine
  8
0
 62
256
370
-1
  6
ByLayer
 10
53.2509122235526178
 20
159.4638356985756502
 30
0.0
 11
56.1182496957922297
 21
158.5815796018041226
 31
0.0
  0
INSERT
  5
12B
100
AcDbEntity
100
AcDbBlockReference
  8
0
 62
256
370
-1
  6
ByLayer
  2
Escalador
 10
194.5016417174027197
 20
0.0000000000000018
 30
0.0
  0
INSERT
  5
12C
100
AcDbEntity
100
AcDbBlockReference
  8
0
 62
256
370
-1
  6
ByLayer
  2
Suelo
 10
0.0
 20
0.0
 30
0.0
  0
INSERT
  5
12D
100
AcDbEntity
100
AcDbBlockReference
  8
0
 62
256
370
-1
  6
ByLayer
  2
Pared
 10
0.0
 20
0.0
 30
0.0
  0
LINE
  5
12E
100
AcDbEntity
100
AcDbLine
  8
0
 62
256
370
-1
  6
ByLayer
 10
103.6712703758052641
 20
315.3293614175697144
 30
0.0
 11
101.2094492543100444
 21
315.3293614175697144
 31
0.0
  0
LINE
  5
12F
100
AcDbEntity
100
AcDbLine
  8
0
 62
256
370
-1
  6
ByLayer
 10
104.1491599545118731
 20
314.6823187347744692
 30
0.0
 11
103.17190819027374
 21
311.5062447879168985
 31
0.0
  0
ARC
  5
130
100
AcDbEntity
  8
0
 62
256
370
-1
  6
ByLayer
100
AcDbCircle
 10
103.6712703758052641
 20
314.8293614175697144
 30
0.0
 40
0.5
100
AcDbArc
 50
342.8973000000013371
 51
90.0
  0
LINE
  5
131
100
AcDbEntity
100
AcDbLine
  8
0
 62
256
370
-1
  6
ByLayer
 10
97.7895630639950753
 20
296.2137782693056351
 30
0.0
 11
95.3277419424998556
 21
296.2137782693056351
 31
0.0
  0
LINE
  5
132
100
AcDbEntity
100
AcDbLine
  8
0
 62
256
370
-1
  6
ByLayer
 10
98.2674526427016843
 20
295.56673558651039
 30
0.0
 11
97.2902008784635512
 21
292.3906616396528193
 31
0.0
  0
ARC
  5
133
100
AcDbEntity
  8
0
 62
256
370
-1
  6
ByLayer
100
AcDbCircle
 10
97.7895630639950753
 20
295.7137782693056351
 30
0.0
 40
0.5
100
AcDbArc
 50
342.8973000000013371
 51
90.0
  0
LINE
  5
134
100
AcDbEntity
100
AcDbLine
  8
0
 62
256
370
-1
  6
ByLayer
 10
91.9078557521848865
 20
277.0981951210415559
 30
0.0
 11
89.4460346306896668
 21
277.0981951210415559
 31
0.0
  0
LINE
  5
135
100
AcDbEntity
100
AcDbLine
  8
0
 62
256
370
-1
  6
ByLayer
 10
92.3857453308914955
 20
276.4511524382463108
 30
0.0
 11
91.4084935666533624
 21
273.2750784913887401
 31
0.0
  0
ARC
  5
136
100
AcDbEntity
  8
0
 62
256
370
-1
  6
ByLayer
100
AcDbCircle
 10
91.9078557521848865
 20
276.5981951210415559
 30
0.0
 40
0.5
100
AcDbArc
 50
342.8973000000013371
 51
90.0
  0
LINE
  5
137
100
AcDbEntity
100
AcDbLine
  8
0
 62
256
370
-1
  6
ByLayer
 10
86.0261484403746977
 20
257.9826119727774767
 30
0.0
 11
83.564327318879478
 21
257.9826119727774767
 31
0.0
  0
LINE
  5
138
100
AcDbEntity
100
AcDbLine
  8
0
 62
256
370
-1
  6
ByLayer
 10
86.5040380190813067
 20
257.3355692899822316
 30
0.0
 11
85.5267862548431737
 21
254.1594953431246608
 31
0.0
  0
ARC
  5
139
100
AcDbEntity
  8
0
 62
256
370
-1
  6
ByLayer
100
AcDbCircle
 10
86.0261484403746977
 20
257.4826119727774767
 30
0.0
 40
0.5
100
AcDbArc
 50
342.8973000000013371
 51
90.0
  0
LINE
  5
13A
100
AcDbEntity
100
AcDbLine
  8
0
 62
256
370
-1
  6
ByLayer
 10
80.1444411285645089
 20
238.867028824513369
 30
0.0
 11
77.6826200070692892
 21
238.867028824513369
 31
0.0
  0
LINE
  5
13B
100
AcDbEntity
100
AcDbLine
  8
0
 62
256
370
-1
  6
ByLayer
 10
80.6223307072711179
 20
238.2199861417181239
 30
0.0
 11
79.6450789430329849
 21
235.0439121948605532
 31
0.0
  0
ARC
  5
13C
100
AcDbEntity
  8
0
 62
256
370
-1
  6
ByLayer
100
AcDbCircle
 10
80.1444411285645089
 20
238.367028824513369
 30
0.0
 40
0.5
100
AcDbArc
 50
342.8973000000013371
 51
90.0
  0
LINE
  5
13D
100
AcDbEntity
100
AcDbLine
  8
0
 62
256
370
-1
  6
ByLayer
 10
74.2627338167543201
 20
219.7514456762492614
 30
0.0
 11
71.8009126952591004
 21
219.7514456762492614
 31
0.0
  0
LINE
  5
13E
100
AcDbEntity
100
AcDbLine
  8
0
 62
256
370
-1
  6
ByLayer
 10
74.7406233954609291
 20
219.1044029934540163
 30
0.0
 11
73.7633716312227961
 21
215.9283290465964456
 31
0.0
  0
ARC
  5
13F
100
AcDbEntity
  8
0
 62
256
370
-1
  6
ByLayer
100
AcDbCircle
 10
74.2627338167543201
 20
219.2514456762492614
 30
0.0
 40
0.5
100
AcDbArc
 50
342.8973000000013371
 51
90.0
  0
LINE
  5
140
100
AcDbEntity
100
AcDbLine
  8
0
 62
256
370
-1
  6
ByLayer
 10
68.3810265049441313
 20
200.6358625279851537
 30
0.0
 11
65.9192053834489116
 21
200.6358625279851537
 31
0.0
  0
LINE
  5
141
100
AcDbEntity
100
AcDbLine
  8
0
 62
256
370
-1
  6
ByLayer
 10
68.8589160836507403
 20
199.9888198451899086
 30
0.0
 11
67.8816643194126073
 21
196.8127458983323379
 31
0.0
  0
ARC
  5
142
100
AcDbEntity
  8
0
 62
256
370
-1
  6
ByLayer
100
AcDbCircle
 10
68.3810265049441313
 20
200.1358625279851537
 30
0.0
 40
0.5
100
AcDbArc
 50
342.8973000000013371
 51
90.0
  0
LINE
  5
143
100
AcDbEntity
100
AcDbLine
  8
0
 62
256
370
-1
  6
ByLayer
 10
62.4993191931339425
 20
181.5202793797210461
 30
0.0
 11
60.0374980716387228
 21
181.5202793797210461
 31
0.0
  0
LINE
  5
144
100
AcDbEntity
100
AcDbLine
  8
0
 62
256
370
-1
  6
ByLayer
 10
62.9772087718405515
 20
180.873236696925801
 30
0.0
 11
61.9999570076024185
 21
177.6971627500682303
 31
0.0
  0
ARC
  5
145
100
AcDbEntity
  8
0
 62
256
370
-1
  6
ByLayer
100
AcDbCircle
 10
62.4993191931339425
 20
181.0202793797210461
 30
0.0
 40
0.5
100
AcDbArc
 50
342.8973000000013371
 51
90.0
  0
LINE
  5
146
100
AcDbEntity
100
AcDbLine
  8
0
 62
256
370
-1
  6
ByLayer
 10
0.000000000000021
 20
106.4520806887938704
 30
0.0
 11
0.000000000000021
 21
118.4520806887938704
 31
0.0
  0
LINE
  5
147
100
AcDbEntity
100
AcDbLine
  8
0
 62
256
370
-1
  6
ByLayer
 10
0.3000000000000217
 20
106.4520806887938704
 30
0.0
 11
0.3000000000000217
 21
118.4520806887938704
 31
0.0
  0
LINE
  5
148
100
AcDbEntity
100
AcDbLine
  8
0
 62
256
370
-1
  6
ByLayer
 10
0.3000000000000217
 20
118.4520806887938704
 30
0.0
 11
0.000000000000021
 21
118.4520806887938704
 31
0.0
  0
LINE
  5
149
100
AcDbEntity
100
AcDbLine
  8
0
 62
256
370
-1
  6
ByLayer
 10
0.3000000000000217
 20
106.4520806887938704
 30
0.0
 11
0.000000000000021
 21
106.4520806887938704
 31
0.0
  0
LINE
  5
14A
100
AcDbEntity
100
AcDbLine
  8
0
 62
256
370
-1
  6
ByLayer
 10
0.000000000000021
 20
106.4520806887938704
 30
0.0
 11
0.000000000000021
 21
118.4520806887938704
 31
0.0
  0
LINE
  5
14B
100
AcDbEntity
100
AcDbLine
  8
0
 62
256
370
-1
  6
ByLayer
 10
0.3000000000000217
 20
106.4520806887938704
 30
0.0
 11
0.3000000000000217
 21
118.4520806887938704
 31
0.0
  0
LINE
  5
14C
100
AcDbEntity
100
AcDbLine
  8
0
 62
256
370
-1
  6
ByLayer
 10
0.3000000000000217
 20
118.4520806887938704
 30
0.0
 11
0.000000000000021
 21
118.4520806887938704
 31
0.0
  0
LINE
  5
14D
100
AcDbEntity
100
AcDbLine
  8
0
 62
256
370
-1
  6
ByLayer
 10
0.3000000000000217
 20
106.4520806887938704
 30
0.0
 11
0.000000000000021
 21
106.4520806887938704
 31
0.0
  0
LINE
  5
14E
100
AcDbEntity
100
AcDbLine
  8
0
 62
256
370
-1
  6
ByLayer
 10
0.000000000000021
 20
106.4520806887938704
 30
0.0
 11
0.000000000000021
 21
118.4520806887938704
 31
0.0
  0
LINE
  5
14F
100
AcDbEntity
100
AcDbLine
  8
0
 62
256
370
-1
  6
ByLayer
 10
0.3000000000000217
 20
106.4520806887938704
 30
0.0
 11
0.3000000000000217
 21
118.4520806887938704
 31
0.0
  0
LINE
  5
150
100
AcDbEntity
100
AcDbLine
  8
0
 62
256
370
-1
  6
ByLayer
 10
0.3000000000000217
 20
118.4520806887938704
 30
0.0
 11
0.000000000000021
 21
118.4520806887938704
 31
0.0
  0
LINE
  5
151
100
AcDbEntity
100
AcDbLine
  8
0
 62
256
370
-1
  6
ByLayer
 10
0.3000000000000217
 20
106.4520806887938704
 30
0.0
 11
0.000000000000021
 21
106.4520806887938704
 31
0.0
  0
LINE
  5
152
100
AcDbEntity
100
AcDbLine
  8
0
 62
256
370
-1
  6
ByLayer
 10
0.000000000000021
 20
106.4520806887938704
 30
0.0
 11
0.000000000000021
 21
118.4520806887938704
 31
0.0
  0
LINE
  5
153
100
AcDbEntity
100
AcDbLine
  8
0
 62
256
370
-1
  6
ByLayer
 10
0.3000000000000217
 20
106.4520806887938704
 30
0.0
 11
0.3000000000000217
 21
118.4520806887938704
 31
0.0
  0
LINE
  5
154
100
AcDbEntity
100
AcDbLine
  8
0
 62
256
370
-1
  6
ByLayer
 10
0.3000000000000217
 20
118.4520806887938704
 30
0.0
 11
0.000000000000021
 21
118.4520806887938704
 31
0.0
  0
LINE
  5
155
100
AcDbEntity
100
AcDbLine
  8
0
 62
256
370
-1
  6
ByLayer
 10
0.3000000000000217
 20
106.4520806887938704
 30
0.0
 11
0.000000000000021
 21
106.4520806887938704
 31
0.0
  0
LINE
  5
156
100
AcDbEntity
100
AcDbLine
  8
0
 62
256
370
-1
  6
ByLayer
 10
0.000000000000021
 20
106.4520806887938704
 30
0.0
 11
0.000000000000021
 21
118.4520806887938704
 31
0.0
  0
LINE
  5
157
100
AcDbEntity
100
AcDbLine
  8
0
 62
256
370
-1
  6
ByLayer
 10
0.3000000000000217
 20
106.4520806887938704
 30
0.0
 11
0.3000000000000217
 21
118.4520806887938704
 31
0.0
  0
LINE
  5
158
100
AcDbEntity
100
AcDbLine
  8
0
 62
256
370
-1
  6
ByLayer
 10
0.3000000000000217
 20
118.4520806887938704
 30
0.0
 11
0.000000000000021
 21
118.4520806887938704
 31
0.0
  0
LINE
  5
159
100
AcDbEntity
100
AcDbLine
  8
0
 62
256
370
-1
  6
ByLayer
 10
0.3000000000000217
 20
106.4520806887938704
 30
0.0
 11
0.000000000000021
 21
106.4520806887938704
 31
0.0
  0
LINE
  5
15A
100
AcDbEntity
100
AcDbLine
  8
0
 62
256
370
-1
  6
ByLayer
 10
0.000000000000021
 20
106.4520806887938704
 30
0.0
 11
0.000000000000021
 21
118.4520806887938704
 31
0.0
  0
LINE
  5
15B
100
AcDbEntity
100
AcDbLine
  8
0
 62
256
370
-1
  6
ByLayer
 10
0.3000000000000217
 20
106.4520806887938704
 30
0.0
 11
0.3000000000000217
 21
118.4520806887938704
 31
0.0
  0
LINE
  5
15C
100
AcDbEntity
100
AcDbLine
  8
0
 62
256
370
-1
  6
ByLayer
 10
0.3000000000000217
 20
118.4520806887938704
 30
0.0
 11
0.000000000000021
 21
118.4520806887938704
 31
0.0
  0
LINE
  5
15D
100
AcDbEntity
100
AcDbLine
  8
0
 62
256
370
-1
  6
ByLayer
 10
0.3000000000000217
 20
106.4520806887938704
 30
0.0
 11
0.000000000000021
 21
106.4520806887938704
 31
0.0
  0
LINE
  5
15E
100
AcDbEntity
100
AcDbLine
  8
0
 62
256
370
-1
  6
ByLayer
 10
0.000000000000021
 20
106.4520806887938704
 30
0.0
 11
0.000000000000021
 21
118.4520806887938704
 31
0.0
  0
LINE
  5
15F
100
AcDbEntity
100
AcDbLine
  8
0
 62
256
370
-1
  6
ByLayer
 10
0.3000000000000217
 20
106.4520806887938704
 30
0.0
 11
0.3000000000000217
 21
118.4520806887938704
 31
0.0
  0
LINE
  5
160
100
AcDbEntity
100
AcDbLine
  8
0
 62
256
370
-1
  6
ByLayer
 10
0.3000000000000217
 20
118.4520806887938704
 30
0.0
 11
0.000000000000021
 21
118.4520806887938704
 31
0.0
  0
LINE
  5
161
100
AcDbEntity
100
AcDbLine
  8
0
 62
256
370
-1
  6
ByLayer
 10
0.3000000000000217
 20
106.4520806887938704
 30
0.0
 11
0.000000000000021
 21
106.4520806887938704
 31
0.0
  0
LINE
  5
162
100
AcDbEntity
100
AcDbLine
  8
0
 62
256
370
-1
  6
ByLayer
 10
0.000000000000021
 20
106.4520806887938704
 30
0.0
 11
0.000000000000021
 21
118.4520806887938704
 31
0.0
  0
LINE
  5
163
100
AcDbEntity
100
AcDbLine
  8
0
 62
256
370
-1
  6
ByLayer
 10
0.3000000000000217
 20
106.4520806887938704
 30
0.0
 11
0.3000000000000217
 21
118.4520806887938704
 31
0.0
  0
LINE
  5
164
100
AcDbEntity
100
AcDbLine
  8
0
 62
256
370
-1
  6
ByLayer
 10
0.3000000000000217
 20
118.4520806887938704
 30
0.0
 11
0.000000000000021
 21
118.4520806887938704
 31
0.0
  0
LINE
  5
165
100
AcDbEntity
100
AcDbLine
  8
0
 62
256
370
-1
  6
ByLayer
 10
0.3000000000000217
 20
106.4520806887938704
 30
0.0
 11
0.000000000000021
 21
106.4520806887938704
 31
0.0
  0
LINE
  5
166
100
AcDbEntity
100
AcDbLine
  8
0
 62
256
370
-1
  6
ByLayer
 10
0.3000000000000218
 20
117.1407876785117708
 30
0.0
 11
0.8000000000000218
 21
117.1407876785117708
 31
0.0
  0
LINE
  5
167
100
AcDbEntity
100
AcDbLine
  8
0
 62
256
370
-1
  6
ByLayer
 10
0.3000000000000216
 20
115.9407876785117821
 30
0.0
 11
0.8000000000000216
 21
115.9407876785117821
 31
0.0
  0
LINE
  5
168
100
AcDbEntity
100
AcDbLine
  8
0
 62
256
370
-1
  6
ByLayer
 10
0.8000000000000216
 20
115.9407876785117821
 30
0.0
 11
0.8000000000000218
 21
117.1407876785117708
 31
0.0
  0
LINE
  5
169
100
AcDbEntity
100
AcDbLine
  8
0
 62
256
370
-1
  6
ByLayer
 10
0.8000000000000218
 20
107.7633736990759701
 30
0.0
 11
0.3000000000000218
 21
107.7633736990759701
 31
0.0
  0
LINE
  5
16A
100
AcDbEntity
100
AcDbLine
  8
0
 62
256
370
-1
  6
ByLayer
 10
0.8000000000000218
 20
108.9633736990759587
 30
0.0
 11
0.3000000000000218
 21
108.9633736990759587
 31
0.0
  0
LINE
  5
16B
100
AcDbEntity
100
AcDbLine
  8
0
 62
256
370
-1
  6
ByLayer
 10
0.3000000000000218
 20
108.9633736990759587
 30
0.0
 11
0.3000000000000218
 21
107.7633736990759701
 31
0.0
  0
LINE
  5
16C
100
AcDbEntity
100
AcDbLine
  8
0
 62
256
370
-1
  6
ByLayer
 10
0.8000000000000218
 20
108.9633736990759587
 30
0.0
 11
0.8000000000000218
 21
107.7633736990759701
 31
0.0
  0
LINE
  5
16D
100
AcDbEntity
100
AcDbLine
  8
0
 62
256
370
-1
  6
ByLayer
 10
0.0000000000000273
 20
209.6106073923200199
 30
0.0
 11
0.0000000000000273
 21
221.6106073923200199
 31
0.0
  0
LINE
  5
16E
100
AcDbEntity
100
AcDbLine
  8
0
 62
256
370
-1
  6
ByLayer
 10
0.300000000000028
 20
209.6106073923200199
 30
0.0
 11
0.300000000000028
 21
221.6106073923200199
 31
0.0
  0
LINE
  5
16F
100
AcDbEntity
100
AcDbLine
  8
0
 62
256
370
-1
  6
ByLayer
 10
0.0000000000000273
 20
209.6106073923200199
 30
0.0
 11
0.0000000000000273
 21
221.6106073923200199
 31
0.0
  0
LINE
  5
170
100
AcDbEntity
100
AcDbLine
  8
0
 62
256
370
-1
  6
ByLayer
 10
0.300000000000028
 20
209.6106073923200199
 30
0.0
 11
0.300000000000028
 21
221.6106073923200199
 31
0.0
  0
LINE
  5
171
100
AcDbEntity
100
AcDbLine
  8
0
 62
256
370
-1
  6
ByLayer
 10
0.300000000000028
 20
209.6106073923200199
 30
0.0
 11
0.0000000000000273
 21
209.6106073923200199
 31
0.0
  0
LINE
  5
172
100
AcDbEntity
100
AcDbLine
  8
0
 62
256
370
-1
  6
ByLayer
 10
0.0000000000000273
 20
209.6106073923200199
 30
0.0
 11
0.0000000000000273
 21
221.6106073923200199
 31
0.0
  0
LINE
  5
173
100
AcDbEntity
100
AcDbLine
  8
0
 62
256
370
-1
  6
ByLayer
 10
0.300000000000028
 20
209.6106073923200199
 30
0.0
 11
0.300000000000028
 21
221.6106073923200199
 31
0.0
  0
LINE
  5
174
100
AcDbEntity
100
AcDbLine
  8
0
 62
256
370
-1
  6
ByLayer
 10
0.300000000000028
 20
221.6106073923200199
 30
0.0
 11
0.0000000000000273
 21
221.6106073923200199
 31
0.0
  0
LINE
  5
175
100
AcDbEntity
100
AcDbLine
  8
0
 62
256
370
-1
  6
ByLayer
 10
0.300000000000028
 20
209.6106073923200199
 30
0.0
 11
0.0000000000000273
 21
209.6106073923200199
 31
0.0
  0
LINE
  5
176
100
AcDbEntity
100
AcDbLine
  8
0
 62
256
370
-1
  6
ByLayer
 10
0.0000000000000273
 20
209.6106073923200199
 30
0.0
 11
0.0000000000000273
 21
221.6106073923200199
 31
0.0
  0
LINE
  5
177
100
AcDbEntity
100
AcDbLine
  8
0
 62
256
370
-1
  6
ByLayer
 10
0.300000000000028
 20
209.6106073923200199
 30
0.0
 11
0.300000000000028
 21
221.6106073923200199
 31
0.0
  0
LINE
  5
178
100
AcDbEntity
100
AcDbLine
  8
0
 62
256
370
-1
  6
ByLayer
 10
0.300000000000028
 20
221.6106073923200199
 30
0.0
 11
0.0000000000000273
 21
221.6106073923200199
 31
0.0
  0
LINE
  5
179
100
AcDbEntity
100
AcDbLine
  8
0
 62
256
370
-1
  6
ByLayer
 10
0.300000000000028
 20
209.6106073923200199
 30
0.0
 11
0.0000000000000273
 21
209.6106073923200199
 31
0.0
  0
LINE
  5
17A
100
AcDbEntity
100
AcDbLine
  8
0
 62
256
370
-1
  6
ByLayer
 10
0.0000000000000273
 20
209.6106073923200199
 30
0.0
 11
0.0000000000000273
 21
221.6106073923200199
 31
0.0
  0
LINE
  5
17B
100
AcDbEntity
100
AcDbLine
  8
0
 62
256
370
-1
  6
ByLayer
 10
0.300000000000028
 20
209.6106073923200199
 30
0.0
 11
0.300000000000028
 21
221.6106073923200199
 31
0.0
  0
LINE
  5
17C
100
AcDbEntity
100
AcDbLine
  8
0
 62
256
370
-1
  6
ByLayer
 10
0.300000000000028
 20
221.6106073923200199
 30
0.0
 11
0.0000000000000273
 21
221.6106073923200199
 31
0.0
  0
LINE
  5
17D
100
AcDbEntity
100
AcDbLine
  8
0
 62
256
370
-1
  6
ByLayer
 10
0.300000000000028
 20
209.6106073923200199
 30
0.0
 11
0.0000000000000273
 21
209.6106073923200199
 31
0.0
  0
LINE
  5
17E
100
AcDbEntity
100
AcDbLine
  8
0
 62
256
370
-1
  6
ByLayer
 10
0.0000000000000273
 20
209.6106073923200199
 30
0.0
 11
0.0000000000000273
 21
221.6106073923200199
 31
0.0
  0
LINE
  5
17F
100
AcDbEntity
100
AcDbLine
  8
0
 62
256
370
-1
  6
ByLayer
 10
0.300000000000028
 20
209.6106073923200199
 30
0.0
 11
0.300000000000028
 21
221.6106073923200199
 31
0.0
  0
LINE
  5
180
100
AcDbEntity
100
AcDbLine
  8
0
 62
256
370
-1
  6
ByLayer
 10
0.300000000000028
 20
221.6106073923200199
 30
0.0
 11
0.0000000000000273
 21
221.6106073923200199
 31
0.0
  0
LINE
  5
181
100
AcDbEntity
100
AcDbLine
  8
0
 62
256
370
-1
  6
ByLayer
 10
0.300000000000028
 20
209.6106073923200199
 30
0.0
 11
0.0000000000000273
 21
209.6106073923200199
 31
0.0
  0
LINE
  5
182
100
AcDbEntity
100
AcDbLine
  8
0
 62
256
370
-1
  6
ByLayer
 10
0.0000000000000273
 20
209.6106073923200199
 30
0.0
 11
0.0000000000000273
 21
221.6106073923200199
 31
0.0
  0
LINE
  5
183
100
AcDbEntity
100
AcDbLine
  8
0
 62
256
370
-1
  6
ByLayer
 10
0.300000000000028
 20
209.6106073923200199
 30
0.0
 11
0.300000000000028
 21
221.6106073923200199
 31
0.0
  0
LINE
  5
184
100
AcDbEntity
100
AcDbLine
  8
0
 62
256
370
-1
  6
ByLayer
 10
0.300000000000028
 20
221.6106073923200199
 30
0.0
 11
0.0000000000000273
 21
221.6106073923200199
 31
0.0
  0
LINE
  5
185
100
AcDbEntity
100
AcDbLine
  8
0
 62
256
370
-1
  6
ByLayer
 10
0.300000000000028
 20
209.6106073923200199
 30
0.0
 11
0.0000000000000273
 21
209.6106073923200199
 31
0.0
  0
LINE
  5
186
100
AcDbEntity
100
AcDbLine
  8
0
 62
256
370
-1
  6
ByLayer
 10
0.0000000000000273
 20
209.6106073923200199
 30
0.0
 11
0.0000000000000273
 21
221.6106073923200199
 31
0.0
  0
LINE
  5
187
100
AcDbEntity
100
AcDbLine
  8
0
 62
256
370
-1
  6
ByLayer
 10
0.300000000000028
 20
209.6106073923200199
 30
0.0
 11
0.300000000000028
 21
221.6106073923200199
 31
0.0
  0
LINE
  5
188
100
AcDbEntity
100
AcDbLine
  8
0
 62
256
370
-1
  6
ByLayer
 10
0.300000000000028
 20
221.6106073923200199
 30
0.0
 11
0.0000000000000273
 21
221.6106073923200199
 31
0.0
  0
LINE
  5
189
100
AcDbEntity
100
AcDbLine
  8
0
 62
256
370
-1
  6
ByLayer
 10
0.300000000000028
 20
209.6106073923200199
 30
0.0
 11
0.0000000000000273
 21
209.6106073923200199
 31
0.0
  0
LINE
  5
18A
100
AcDbEntity
100
AcDbLine
  8
0
 62
256
370
-1
  6
ByLayer
 10
0.3000000000000279
 20
219.0993143820379316
 30
0.0
 11
0.8000000000000279
 21
219.0993143820379316
 31
0.0
  0
LINE
  5
18B
100
AcDbEntity
100
AcDbLine
  8
0
 62
256
370
-1
  6
ByLayer
 10
0.8000000000000279
 20
219.0993143820379316
 30
0.0
 11
0.8000000000000281
 21
220.2993143820379203
 31
0.0
  0
LINE
  5
18C
100
AcDbEntity
100
AcDbLine
  8
0
 62
256
370
-1
  6
ByLayer
 10
0.8000000000000281
 20
212.1219004026021082
 30
0.0
 11
0.3000000000000281
 21
212.1219004026021082
 31
0.0
  0
LINE
  5
18D
100
AcDbEntity
100
AcDbLine
  8
0
 62
256
370
-1
  6
ByLayer
 10
0.3000000000000281
 20
212.1219004026021082
 30
0.0
 11
0.3000000000000281
 21
210.9219004026021196
 31
0.0
  0
LINE
  5
18E
100
AcDbEntity
100
AcDbLine
  8
0
 62
256
370
-1
  6
ByLayer
 10
0.8000000000000281
 20
212.1219004026021082
 30
0.0
 11
0.8000000000000281
 21
210.9219004026021196
 31
0.0
  0
LINE
  5
18F
100
AcDbEntity
100
AcDbLine
  8
0
 62
256
370
-1
  6
ByLayer
 10
0.3000000000000217
 20
110.4520806887938704
 30
0.0
 11
31.8927216721311275
 21
110.4520806887938704
 31
0.0
  0
LINE
  5
190
100
AcDbEntity
100
AcDbLine
  8
0
 62
256
370
-1
  6
ByLayer
 10
0.3000000000000218
 20
114.4520806887938704
 30
0.0
 11
33.1234909029003575
 21
114.4520806887938704
 31
0.0
  0
LINE
  5
191
100
AcDbEntity
100
AcDbLine
  8
0
 62
256
370
-1
  6
ByLayer
 10
56.6176118813237537
 20
162.4046962314569384
 30
0.0
 11
54.155790759828534
 21
162.4046962314569384
 31
0.0
  0
LINE
  5
192
100
AcDbEntity
100
AcDbLine
  8
0
 62
256
370
-1
  6
ByLayer
 10
57.0955014600303628
 20
161.7576535486616933
 30
0.0
 11
56.1182496957922297
 21
158.5815796018041226
 31
0.0
  0
ARC
  5
193
100
AcDbEntity
  8
0
 62
256
370
-1
  6
ByLayer
100
AcDbCircle
 10
56.6176118813237537
 20
161.9046962314569384
 30
0.0
 40
0.5
100
AcDbArc
 50
342.8973000000013371
 51
90.0
  0
LINE
  5
194
100
AcDbEntity
100
AcDbLine
  8
00
 62
256
370
-1
  6
ByLayer
 10
400.0
 20
0.0
 30
0.0
 11
600.0
 21
0.0
 31
0.0
  0
LINE
  5
195
100
AcDbEntity
100
AcDbLine
  8
00
 62
256
370
-1
  6
ByLayer
 10
400.0
 20
-40.0000000000000284
 30
0.0
 11
600.0
 21
-40.0000000000000284
 31
0.0
  0
LINE
  5
196
100
AcDbEntity
100
AcDbLine
  8
00
 62
256
370
-1
  6
ByLayer
 10
600.0
 20
0.0
 30
0.0
 11
800.0
 21
0.0
 31
0.0
  0
LINE
  5
197
100
AcDbEntity
100
AcDbLine
  8
00
 62
256
370
-1
  6
ByLayer
 10
600.0
 20
-40.0000000000000284
 30
0.0
 11
800.0
 21
-40.0000000000000284
 31
0.0
  0
INSERT
  5
198
100
AcDbEntity
100
AcDbBlockReference
  8
0
 62
256
370
-1
  6
ByLayer
  2
Suelo
 10
0.0000000000000213
 20
367.3999999999999773
 30
0.0
  0
INSERT
  5
199
100
AcDbEntity
100
AcDbBlockReference
  8
0
 62
256
370
-1
  6
ByLayer
  2
Suelo
 10
440.0
 20
367.3999999999999773
 30
0.0
  0
INSERT
  5
19A
100
AcDbEntity
100
AcDbBlockReference
  8
0
 62
256
370
-1
  6
ByLayer
  2
Suelo
 10
440.0
 20
-0.0000000000000049
 30
0.0
  0
LINE
  5
19B
100
AcDbEntity
100
AcDbLine
  8
00
 62
256
370
-1
  6
ByLayer
 10
400.0
 20
327.3999999999999773
 30
0.0
 11
400.0
 21
0.0
 31
0.0
  0
LINE
  5
19C
100
AcDbEntity
100
AcDbLine
  8
00
 62
256
370
-1
  6
ByLayer
 10
98.3311627278257276
 20
326.377014119801288
 30
0.0
 11
102.1542787627135027
 21
325.2006707244512427
 31
0.0
  0
LINE
  5
19D
100
AcDbEntity
100
AcDbLine
  8
00
 62
256
370
-1
  6
ByLayer
 10
103.7377639126866313
 20
323.5462622075722265
 30
0.0
 11
101.8262086775411603
 21
324.1344429476411051
 31
0.0
  0
LINE
  5
19E
100
AcDbEntity
100
AcDbLine
  8
00
 62
256
370
-1
  6
ByLayer
 10
546.4919999999999618
 20
323.5462622075722265
 30
0.0
 11
612.4922882137731222
 21
323.5462622075722265
 31
0.0
  0
LINE
  5
19F
100
AcDbEntity
100
AcDbLine
  8
00
 62
256
370
-1
  6
ByLayer
 10
546.4922882137731222
 20
148.6389581917626401
 30
0.0
 11
612.4922882137731222
 21
148.6389581917626401
 31
0.0
  0
LINE
  5
1A0
100
AcDbEntity
100
AcDbLine
  8
00
 62
256
370
-1
  6
ByLayer
 10
546.4922882137731222
 20
323.5462622075722265
 30
0.0
 11
546.4922882137731222
 21
148.6389581917626685
 31
0.0
  0
LINE
  5
1A1
100
AcDbEntity
100
AcDbLine
  8
00
 62
256
370
-1
  6
ByLayer
 10
612.4922882137731222
 20
323.5462622075722265
 30
0.0
 11
612.4922882137731222
 21
148.6389581917626685
 31
0.0
  0
LINE
  5
1A2
100
AcDbEntity
100
AcDbLine
  8
00
 62
256
370
-1
  6
DASHED
 10
548.4922882137731222
 20
323.5462622075722265
 30
0.0
 11
548.4922882137731222
 21
148.6389581917626685
 31
0.0
  0
LINE
  5
1A3
100
AcDbEntity
100
AcDbLine
  8
00
 62
256
370
-1
  6
DASHED
 10
610.4922882137731222
 20
323.5462622075722265
 30
0.0
 11
610.4922882137731222
 21
148.6389581917626685
 31
0.0
  0
LINE
  5
1A4
100
AcDbEntity
100
AcDbLine
  8
00
 62
256
370
-1
  6
DASHED
 10
606.4922882137731222
 20
323.5462622075722265
 30
0.0
 11
606.4922882137731222
 21
148.6389581917626685
 31
0.0
  0
LINE
  5
1A5
100
AcDbEntity
100
AcDbLine
  8
00
 62
256
370
-1
  6
ByLayer
 10
552.4922882137731222
 20
323.5462622075722265
 30
0.0
 11
552.4922882137731222
 21
323.5462622075722265
 31
0.0
  0
LINE
  5
1A6
100
AcDbEntity
100
AcDbLine
  8
00
 62
256
370
-1
  6
ByLayer
 10
552.4922882137731222
 20
323.5462622075722265
 30
0.0
 11
552.4922882137731222
 21
327.3999999999999773
 31
0.0
  0
LINE
  5
1A7
100
AcDbEntity
100
AcDbLine
  8
00
 62
256
370
-1
  6
DASHED
 10
552.4922882137731222
 20
323.5462622075722265
 30
0.0
 11
552.4922882137731222
 21
148.6389581917626685
 31
0.0
  0
LINE
  5
1A8
100
AcDbEntity
100
AcDbLine
  8
00
 62
256
370
-1
  6
ByLayer
 10
548.4922882137731222
 20
323.5462622075722265
 30
0.0
 11
548.4922882137731222
 21
327.3999999999999773
 31
0.0
  0
LINE
  5
1A9
100
AcDbEntity
100
AcDbLine
  8
00
 62
256
370
-1
  6
ByLayer
 10
606.4922882137731222
 20
323.5462622075722265
 30
0.0
 11
606.4922882137731222
 21
327.3999999999999773
 31
0.0
  0
LINE
  5
1AA
100
AcDbEntity
100
AcDbLine
  8
00
 62
256
370
-1
  6
ByLayer
 10
610.4922882137731222
 20
323.5462622075722265
 30
0.0
 11
610.4922882137731222
 21
327.3999999999999773
 31
0.0
  0
LINE
  5
1AB
100
AcDbEntity
100
AcDbLine
  8
00
 62
256
370
-1
  6
ByLayer
 10
548.4922882137731222
 20
148.6389581917626685
 30
0.0
 11
548.4922882137731222
 21
0.0
 31
0.0
  0
LINE
  5
1AC
100
AcDbEntity
100
AcDbLine
  8
00
 62
256
370
-1
  6
ByLayer
 10
552.4922882137731222
 20
148.6389581917626685
 30
0.0
 11
552.4922882137731222
 21
0.0
 31
0.0
  0
LINE
  5
1AD
100
AcDbEntity
100
AcDbLine
  8
00
 62
256
370
-1
  6
ByLayer
 10
606.4922882137731222
 20
148.6389581917626685
 30
0.0
 11
606.4922882137731222
 21
0.0
 31
0.0
  0
LINE
  5
1AE
100
AcDbEntity
100
AcDbLine
  8
00
 62
256
370
-1
  6
ByLayer
 10
610.4922882137731222
 20
148.6389581917626685
 30
0.0
 11
610.4922882137731222
 21
0.0
 31
0.0
  0
LINE
  5
1AF
100
AcDbEntity
100
AcDbLine
  8
00
 62
256
370
-1
  6
ByLayer
 10
544.4922882137731222
 20
118.4520806887938704
 30
0.0
 11
544.4922882137731222
 21
106.4520806887938704
 31
0.0
  0
LINE
  5
1B0
100
AcDbEntity
100
AcDbLine
  8
00
 62
256
370
-1
  6
ByLayer
 10
556.4922882137731222
 20
118.4520806887938704
 30
0.0
 11
556.4922882137731222
 21
106.4520806887938704
 31
0.0
  0
LINE
  5
1B1
100
AcDbEntity
100
AcDbLine
  8
00
 62
256
370
-1
  6
ByLayer
 10
602.4922882137731222
 20
118.4520806887938704
 30
0.0
 11
602.4922882137731222
 21
106.4520806887938704
 31
0.0
  0
LINE
  5
1B2
100
AcDbEntity
100
AcDbLine
  8
00
 62
256
370
-1
  6
ByLayer
 10
614.4922882137731222
 20
118.4520806887938704
 30
0.0
 11
614.4922882137731222
 21
106.4520806887938704
 31
0.0
  0
CIRCLE
  5
1B3
100
AcDbEntity
100
AcDbCircle
  8
00
 62
256
370
-1
  6
ByLayer
 10
546.4922882137731222
 20
116.5407876785117764
 30
0.0
 40
0.5999999999999943
  0
CIRCLE
  5
1B4
100
AcDbEntity
100
AcDbCircle
  8
00
 62
256
370
-1
  6
ByLayer
 10
546.4922882137731222
 20
108.3633736990759644
 30
0.0
 40
0.5999999999999943
  0
CIRCLE
  5
1B5
100
AcDbEntity
100
AcDbCircle
  8
00
 62
256
370
-1
  6
ByLayer
 10
554.4922882137731222
 20
116.5407876785117764
 30
0.0
 40
0.5999999999999943
  0
CIRCLE
  5
1B6
100
AcDbEntity
100
AcDbCircle
  8
00
 62
256
370
-1
  6
ByLayer
 10
554.4922882137731222
 20
108.3633736990759644
 30
0.0
 40
0.5999999999999943
  0
CIRCLE
  5
1B7
100
AcDbEntity
100
AcDbCircle
  8
00
 62
256
370
-1
  6
ByLayer
 10
604.4922882137731222
 20
116.5407876785117764
 30
0.0
 40
0.5999999999999943
  0
CIRCLE
  5
1B8
100
AcDbEntity
100
AcDbCircle
  8
00
 62
256
370
-1
  6
ByLayer
 10
604.4922882137731222
 20
108.3633736990759644
 30
0.0
 40
0.5999999999999943
  0
CIRCLE
  5
1B9
100
AcDbEntity
100
AcDbCircle
  8
00
 62
256
370
-1
  6
ByLayer
 10
612.4922882137731222
 20
116.5407876785117764
 30
0.0
 40
0.5999999999999943
  0
CIRCLE
  5
1BA
100
AcDbEntity
100
AcDbCircle
  8
00
 62
256
370
-1
  6
ByLayer
 10
612.4922882137731222
 20
108.3633736990759644
 30
0.0
 40
0.5999999999999943
  0
LINE
  5
1BB
100
AcDbEntity
100
AcDbLine
  8
00
 62
256
370
-1
  6
ByLayer
 10
544.4922882137731222
 20
118.4520806887938704
 30
0.0
 11
548.4922882137731222
 21
118.4520806887938704
 31
0.0
  0
LINE
  5
1BC
100
AcDbEntity
100
AcDbLine
  8
00
 62
256
370
-1
  6
ByLayer
 10
552.4922882137731222
 20
118.4520806887938704
 30
0.0
 11
556.4922882137731222
 21
118.4520806887938704
 31
0.0
  0
LINE
  5
1BD
100
AcDbEntity
100
AcDbLine
  8
00
 62
256
370
-1
  6
ByLayer
 10
544.4922882137731222
 20
106.4520806887938704
 30
0.0
 11
548.4922882137731222
 21
106.4520806887938704
 31
0.0
  0
LINE
  5
1BE
100
AcDbEntity
100
AcDbLine
  8
00
 62
256
370
-1
  6
ByLayer
 10
552.4922882137731222
 20
106.4520806887938704
 30
0.0
 11
556.4922882137731222
 21
106.4520806887938704
 31
0.0
  0
LINE
  5
1BF
100
AcDbEntity
100
AcDbLine
  8
00
 62
256
370
-1
  6
DASHED
 10
548.4922882137731222
 20
118.4520806887938704
 30
0.0
 11
552.4922882137731222
 21
118.4520806887938704
 31
0.0
  0
LINE
  5
1C0
100
AcDbEntity
100
AcDbLine
  8
00
 62
256
370
-1
  6
DASHED
 10
548.4922882137731222
 20
106.4520806887938704
 30
0.0
 11
552.4922882137731222
 21
106.4520806887938704
 31
0.0
  0
LINE
  5
1C1
100
AcDbEntity
100
AcDbLine
  8
00
 62
256
370
-1
  6
ByLayer
 10
602.4922882137731222
 20
118.4520806887938704
 30
0.0
 11
606.4922882137731222
 21
118.4520806887938704
 31
0.0
  0
LINE
  5
1C2
100
AcDbEntity
100
AcDbLine
  8
00
 62
256
370
-1
  6
ByLayer
 10
610.4922882137731222
 20
118.4520806887938704
 30
0.0
 11
614.4922882137731222
 21
118.4520806887938704
 31
0.0
  0
LINE
  5
1C3
100
AcDbEntity
100
AcDbLine
  8
00
 62
256
370
-1
  6
ByLayer
 10
602.4922882137731222
 20
106.4520806887938704
 30
0.0
 11
606.4922882137731222
 21
106.4520806887938704
 31
0.0
  0
LINE
  5
1C4
100
AcDbEntity
100
AcDbLine
  8
00
 62
256
370
-1
  6
ByLayer
 10
610.4922882137731222
 20
106.4520806887938704
 30
0.0
 11
614.4922882137731222
 21
106.4520806887938704
 31
0.0
  0
LINE
  5
1C5
100
AcDbEntity
100
AcDbLine
  8
00
 62
256
370
-1
  6
DASHED
 10
606.4922882137731222
 20
118.4520806887938704
 30
0.0
 11
610.4922882137731222
 21
118.4520806887938704
 31
0.0
  0
LINE
  5
1C6
100
AcDbEntity
100
AcDbLine
  8
00
 62
256
370
-1
  6
DASHED
 10
606.4922882137731222
 20
106.4520806887938704
 30
0.0
 11
610.4922882137731222
 21
106.4520806887938704
 31
0.0
  0
LINE
  5
1C7
100
AcDbEntity
100
AcDbLine
  8
00
 62
256
370
-1
  6
DASHED
 10
552.4922882137731222
 20
154.6389581917626401
 30
0.0
 11
606.4922882137731222
 21
154.6389581917626401
 31
0.0
  0
LINE
  5
1C8
100
AcDbEntity
100
AcDbLine
  8
00
 62
256
370
-1
  6
DASHED
 10
552.4922882137731222
 20
150.6389581917626401
 30
0.0
 11
606.4922882137731222
 21
150.6389581917626401
 31
0.0
  0
LINE
  5
1C9
100
AcDbEntity
100
AcDbLine
  8
00
 62
256
370
-1
  6
DASHED
 10
552.4922882137731222
 20
321.5462622075722265
 30
0.0
 11
606.4922882137731222
 21
321.5462622075722265
 31
0.0
  0
LINE
  5
1CA
100
AcDbEntity
100
AcDbLine
  8
00
 62
256
370
-1
  6
DASHED
 10
552.4922882137731222
 20
317.5462622075722265
 30
0.0
 11
606.4922882137731222
 21
317.5462622075722265
 31
0.0
  0
LINE
  5
1CB
100
AcDbEntity
100
AcDbLine
  8
0
 62
256
370
-1
  6
ByLayer
 10
0.0000000000000186
 20
303.2697107330437234
 30
0.0
 11
0.0000000000000186
 21
315.2697107330437234
 31
0.0
  0
LINE
  5
1CC
100
AcDbEntity
100
AcDbLine
  8
0
 62
256
370
-1
  6
ByLayer
 10
0.3000000000000193
 20
303.2697107330437234
 30
0.0
 11
0.3000000000000193
 21
315.2697107330437234
 31
0.0
  0
LINE
  5
1CD
100
AcDbEntity
100
AcDbLine
  8
0
 62
256
370
-1
  6
ByLayer
 10
0.0000000000000186
 20
303.2697107330437234
 30
0.0
 11
0.0000000000000186
 21
315.2697107330437234
 31
0.0
  0
LINE
  5
1CE
100
AcDbEntity
100
AcDbLine
  8
0
 62
256
370
-1
  6
ByLayer
 10
0.3000000000000193
 20
303.2697107330437234
 30
0.0
 11
0.3000000000000193
 21
315.2697107330437234
 31
0.0
  0
LINE
  5
1CF
100
AcDbEntity
100
AcDbLine
  8
0
 62
256
370
-1
  6
ByLayer
 10
0.0000000000000186
 20
303.2697107330437234
 30
0.0
 11
0.0000000000000186
 21
315.2697107330437234
 31
0.0
  0
LINE
  5
1D0
100
AcDbEntity
100
AcDbLine
  8
0
 62
256
370
-1
  6
ByLayer
 10
0.3000000000000193
 20
303.2697107330437234
 30
0.0
 11
0.3000000000000193
 21
315.2697107330437234
 31
0.0
  0
LINE
  5
1D1
100
AcDbEntity
100
AcDbLine
  8
0
 62
256
370
-1
  6
ByLayer
 10
0.3000000000000193
 20
315.2697107330437234
 30
0.0
 11
0.0000000000000186
 21
315.2697107330437234
 31
0.0
  0
LINE
  5
1D2
100
AcDbEntity
100
AcDbLine
  8
0
 62
256
370
-1
  6
ByLayer
 10
0.0000000000000186
 20
303.2697107330437234
 30
0.0
 11
0.0000000000000186
 21
315.2697107330437234
 31
0.0
  0
LINE
  5
1D3
100
AcDbEntity
100
AcDbLine
  8
0
 62
256
370
-1
  6
ByLayer
 10
0.3000000000000193
 20
303.2697107330437234
 30
0.0
 11
0.3000000000000193
 21
315.2697107330437234
 31
0.0
  0
LINE
  5
1D4
100
AcDbEntity
100
AcDbLine
  8
0
 62
256
370
-1
  6
ByLayer
 10
0.3000000000000193
 20
315.2697107330437234
 30
0.0
 11
0.0000000000000186
 21
315.2697107330437234
 31
0.0
  0
LINE
  5
1D5
100
AcDbEntity
100
AcDbLine
  8
0
 62
256
370
-1
  6
ByLayer
 10
0.0000000000000186
 20
303.2697107330437234
 30
0.0
 11
0.0000000000000186
 21
315.2697107330437234
 31
0.0
  0
LINE
  5
1D6
100
AcDbEntity
100
AcDbLine
  8
0
 62
256
370
-1
  6
ByLayer
 10
0.3000000000000193
 20
303.2697107330437234
 30
0.0
 11
0.3000000000000193
 21
315.2697107330437234
 31
0.0
  0
LINE
  5
1D7
100
AcDbEntity
100
AcDbLine
  8
0
 62
256
370
-1
  6
ByLayer
 10
0.3000000000000193
 20
315.2697107330437234
 30
0.0
 11
0.0000000000000186
 21
315.2697107330437234
 31
0.0
  0
LINE
  5
1D8
100
AcDbEntity
100
AcDbLine
  8
0
 62
256
370
-1
  6
ByLayer
 10
0.0000000000000186
 20
303.2697107330437234
 30
0.0
 11
0.0000000000000186
 21
315.2697107330437234
 31
0.0
  0
LINE
  5
1D9
100
AcDbEntity
100
AcDbLine
  8
0
 62
256
370
-1
  6
ByLayer
 10
0.3000000000000193
 20
303.2697107330437234
 30
0.0
 11
0.3000000000000193
 21
315.2697107330437234
 31
0.0
  0
LINE
  5
1DA
100
AcDbEntity
100
AcDbLine
  8
0
 62
256
370
-1
  6
ByLayer
 10
0.3000000000000193
 20
315.2697107330437234
 30
0.0
 11
0.0000000000000186
 21
315.2697107330437234
 31
0.0
  0
LINE
  5
1DB
100
AcDbEntity
100
AcDbLine
  8
0
 62
256
370
-1
  6
ByLayer
 10
0.0000000000000186
 20
303.2697107330437234
 30
0.0
 11
0.0000000000000186
 21
315.2697107330437234
 31
0.0
  0
LINE
  5
1DC
100
AcDbEntity
100
AcDbLine
  8
0
 62
256
370
-1
  6
ByLayer
 10
0.3000000000000193
 20
303.2697107330437234
 30
0.0
 11
0.3000000000000193
 21
315.2697107330437234
 31
0.0
  0
LINE
  5
1DD
100
AcDbEntity
100
AcDbLine
  8
0
 62
256
370
-1
  6
ByLayer
 10
0.3000000000000193
 20
315.2697107330437234
 30
0.0
 11
0.0000000000000186
 21
315.2697107330437234
 31
0.0
  0
LINE
  5
1DE
100
AcDbEntity
100
AcDbLine
  8
0
 62
256
370
-1
  6
ByLayer
 10
0.3000000000000193
 20
303.2697107330437234
 30
0.0
 11
0.0000000000000186
 21
303.2697107330437234
 31
0.0
  0
LINE
  5
1DF
100
AcDbEntity
100
AcDbLine
  8
0
 62
256
370
-1
  6
ByLayer
 10
0.0000000000000186
 20
303.2697107330437234
 30
0.0
 11
0.0000000000000186
 21
315.2697107330437234
 31
0.0
  0
LINE
  5
1E0
100
AcDbEntity
100
AcDbLine
  8
0
 62
256
370
-1
  6
ByLayer
 10
0.3000000000000193
 20
303.2697107330437234
 30
0.0
 11
0.3000000000000193
 21
315.2697107330437234
 31
0.0
  0
LINE
  5
1E1
100
AcDbEntity
100
AcDbLine
  8
0
 62
256
370
-1
  6
ByLayer
 10
0.3000000000000193
 20
315.2697107330437234
 30
0.0
 11
0.0000000000000186
 21
315.2697107330437234
 31
0.0
  0
LINE
  5
1E2
100
AcDbEntity
100
AcDbLine
  8
0
 62
256
370
-1
  6
ByLayer
 10
0.3000000000000193
 20
303.2697107330437234
 30
0.0
 11
0.0000000000000186
 21
303.2697107330437234
 31
0.0
  0
LINE
  5
1E3
100
AcDbEntity
100
AcDbLine
  8
0
 62
256
370
-1
  6
ByLayer
 10
0.3000000000000193
 20
313.9584177227616237
 30
0.0
 11
0.8000000000000193
 21
313.9584177227616237
 31
0.0
  0
LINE
  5
1E4
100
AcDbEntity
100
AcDbLine
  8
0
 62
256
370
-1
  6
ByLayer
 10
0.3000000000000191
 20
312.7584177227616351
 30
0.0
 11
0.800000000000019
 21
312.7584177227616351
 31
0.0
  0
LINE
  5
1E5
100
AcDbEntity
100
AcDbLine
  8
0
 62
256
370
-1
  6
ByLayer
 10
0.800000000000019
 20
312.7584177227616351
 30
0.0
 11
0.8000000000000193
 21
313.9584177227616237
 31
0.0
  0
LINE
  5
1E6
100
AcDbEntity
100
AcDbLine
  8
0
 62
256
370
-1
  6
ByLayer
 10
0.8000000000000193
 20
304.5810037433258231
 30
0.0
 11
0.3000000000000193
 21
304.5810037433258231
 31
0.0
  0
LINE
  5
1E7
100
AcDbEntity
100
AcDbLine
  8
0
 62
256
370
-1
  6
ByLayer
 10
0.8000000000000193
 20
305.7810037433258117
 30
0.0
 11
0.3000000000000193
 21
305.7810037433258117
 31
0.0
  0
LINE
  5
1E8
100
AcDbEntity
100
AcDbLine
  8
0
 62
256
370
-1
  6
ByLayer
 10
0.3000000000000193
 20
305.7810037433258117
 30
0.0
 11
0.3000000000000193
 21
304.5810037433258231
 31
0.0
  0
LINE
  5
1E9
100
AcDbEntity
100
AcDbLine
  8
0
 62
256
370
-1
  6
ByLayer
 10
0.3000000000000193
 20
305.7810037433258117
 30
0.0
 11
0.3000000000000193
 21
307.2697107330437234
 31
0.0
  0
LINE
  5
1EA
100
AcDbEntity
100
AcDbLine
  8
0
 62
256
370
-1
  6
ByLayer
 10
0.8000000000000193
 20
305.7810037433258117
 30
0.0
 11
0.8000000000000193
 21
304.5810037433258231
 31
0.0
  0
LINE
  5
1EB
100
AcDbEntity
100
AcDbLine
  8
00
 62
256
370
-1
  6
ByLayer
 10
544.4922882137731222
 20
315.2697107330437234
 30
0.0
 11
544.4922882137731222
 21
303.2697107330437234
 31
0.0
  0
LINE
  5
1EC
100
AcDbEntity
100
AcDbLine
  8
00
 62
256
370
-1
  6
ByLayer
 10
614.4922882137731222
 20
315.2697107330437234
 30
0.0
 11
614.4922882137731222
 21
303.2697107330437234
 31
0.0
  0
CIRCLE
  5
1ED
100
AcDbEntity
100
AcDbCircle
  8
00
 62
256
370
-1
  6
ByLayer
 10
612.4922882137731222
 20
313.358417722761601
 30
0.0
 40
0.5999999999999943
  0
CIRCLE
  5
1EE
100
AcDbEntity
100
AcDbCircle
  8
00
 62
256
370
-1
  6
ByLayer
 10
612.4922882137731222
 20
305.1810037433258458
 30
0.0
 40
0.5999999999999943
  0
LINE
  5
1EF
100
AcDbEntity
100
AcDbLine
  8
00
 62
256
370
-1
  6
ByLayer
 10
544.4922882137731222
 20
315.2697107330437234
 30
0.0
 11
546.4922882137731222
 21
315.2697107330437234
 31
0.0
  0
LINE
  5
1F0
100
AcDbEntity
100
AcDbLine
  8
00
 62
256
370
-1
  6
ByLayer
 10
544.4922882137731222
 20
303.2697107330437234
 30
0.0
 11
546.4922882137731222
 21
303.2697107330437234
 31
0.0
  0
ARC
  5
1F1
100
AcDbEntity
  8
00
 62
7
370
-1
  6
CONTINUOUS
100
AcDbCircle
 10
546.4922882137731222
 20
305.1810037433258458
 30
0.0
 40
0.5999999999999943
100
AcDbArc
 50
90.0
 51
90.0
  0
ARC
  5
1F2
100
AcDbEntity
  8
00
 62
7
370
-1
  6
CONTINUOUS
100
AcDbCircle
 10
546.4922882137731222
 20
313.358417722761601
 30
0.0
 40
0.5999999999999943
100
AcDbArc
 50
270.0
 51
270.0
  0
LINE
  5
1F3
100
AcDbEntity
100
AcDbLine
  8
00
 62
256
370
-1
  6
DASHED
 10
556.4922882137731222
 20
315.2697107330437234
 30
0.0
 11
556.4922882137731222
 21
303.2697107330437234
 31
0.0
  0
CIRCLE
  5
1F4
100
AcDbEntity
100
AcDbCircle
  8
00
 62
256
370
-1
  6
DASHED
 10
554.4922882137731222
 20
313.358417722761601
 30
0.0
 40
0.5999999999999943
  0
CIRCLE
  5
1F5
100
AcDbEntity
100
AcDbCircle
  8
00
 62
256
370
-1
  6
DASHED
 10
554.4922882137731222
 20
305.1810037433258458
 30
0.0
 40
0.5999999999999943
  0
LINE
  5
1F6
100
AcDbEntity
100
AcDbLine
  8
00
 62
256
370
-1
  6
DASHED
 10
546.4922882137731222
 20
315.2697107330437234
 30
0.0
 11
556.4922882137731222
 21
315.2697107330437234
 31
0.0
  0
LINE
  5
1F7
100
AcDbEntity
100
AcDbLine
  8
00
 62
256
370
-1
  6
DASHED
 10
546.4922882137731222
 20
303.2697107330437234
 30
0.0
 11
556.4922882137731222
 21
303.2697107330437234
 31
0.0
  0
LINE
  5
1F8
100
AcDbEntity
100
AcDbLine
  8
00
 62
256
370
-1
  6
ByLayer
 10
612.4922882137731222
 20
303.2697107330437234
 30
0.0
 11
614.4922882137731222
 21
303.2697107330437234
 31
0.0
  0
LINE
  5
1F9
100
AcDbEntity
100
AcDbLine
  8
00
 62
256
370
-1
  6
ByLayer
 10
612.4922882137731222
 20
315.2697107330437234
 30
0.0
 11
614.4922882137731222
 21
315.2697107330437234
 31
0.0
  0
LINE
  5
1FA
100
AcDbEntity
100
AcDbLine
  8
00
 62
256
370
-1
  6
DASHED
 10
602.4922882137731222
 20
315.2697107330437234
 30
0.0
 11
602.4922882137731222
 21
303.2697107330437234
 31
0.0
  0
CIRCLE
  5
1FB
100
AcDbEntity
100
AcDbCircle
  8
00
 62
256
370
-1
  6
DASHED
 10
604.4922882137731222
 20
313.358417722761601
 30
0.0
 40
0.5999999999999943
  0
CIRCLE
  5
1FC
100
AcDbEntity
100
AcDbCircle
  8
00
 62
256
370
-1
  6
DASHED
 10
604.4922882137731222
 20
305.1810037433258458
 30
0.0
 40
0.5999999999999943
  0
LINE
  5
1FD
100
AcDbEntity
100
AcDbLine
  8
00
 62
256
370
-1
  6
DASHED
 10
602.4922882137731222
 20
303.2697107330437234
 30
0.0
 11
612.4922882137731222
 21
303.2697107330437234
 31
0.0
  0
LINE
  5
1FE
100
AcDbEntity
100
AcDbLine
  8
00
 62
256
370
-1
  6
DASHED
 10
602.4922882137731222
 20
315.2697107330437234
 30
0.0
 11
612.4922882137731222
 21
315.2697107330437234
 31
0.0
  0
LINE
  5
1FF
100
AcDbEntity
100
AcDbLine
  8
0
 62
256
370
-1
  6
ByLayer
 10
0.3000000000000193
 20
303.2697107330437234
 30
0.0
 11
0.0000000000000186
 21
303.2697107330437234
 31
0.0
  0
LINE
  5
200
100
AcDbEntity
100
AcDbLine
  8
0
 62
256
370
-1
  6
ByLayer
 10
0.3000000000000193
 20
303.2697107330437234
 30
0.0
 11
0.0000000000000186
 21
303.2697107330437234
 31
0.0
  0
LINE
  5
201
100
AcDbEntity
100
AcDbLine
  8
0
 62
256
370
-1
  6
ByLayer
 10
0.3000000000000193
 20
303.2697107330437234
 30
0.0
 11
0.0000000000000186
 21
303.2697107330437234
 31
0.0
  0
LINE
  5
202
100
AcDbEntity
100
AcDbLine
  8
0
 62
256
370
-1
  6
ByLayer
 10
0.3000000000000193
 20
303.2697107330437234
 30
0.0
 11
0.0000000000000186
 21
303.2697107330437234
 31
0.0
  0
LINE
  5
203
100
AcDbEntity
100
AcDbLine
  8
0
 62
256
370
-1
  6
ByLayer
 10
0.3000000000000281
 20
220.2993143820379203
 30
0.0
 11
0.8000000000000281
 21
220.2993143820379203
 31
0.0
  0
LINE
  5
204
100
AcDbEntity
100
AcDbLine
  8
0
 62
256
370
-1
  6
ByLayer
 10
0.8000000000000682
 20
210.9219004026021196
 30
0.0
 11
0.3000000000000281
 21
210.9219004026021196
 31
0.0
  0
LINE
  5
205
100
AcDbEntity
100
AcDbLine
  8
0
 62
256
370
-1
  6
ByLayer
 10
0.3000000000000194
 20
307.2697107330437234
 30
0.0
 11
92.4519924549772441
 21
307.2697107330437234
 31
0.0
  0
LINE
  5
206
100
AcDbEntity
100
AcDbLine
  8
0
 62
256
370
-1
  6
ByLayer
 10
0.3000000000000193
 20
311.2697107330437234
 30
0.0
 11
93.6827616857464847
 21
311.2697107330437234
 31
0.0
  0
LINE
  5
207
100
AcDbEntity
100
AcDbLine
  8
0
 62
256
370
-1
  6
ByLayer
 10
0.3000000000000193
 20
303.2697107330437234
 30
0.0
 11
0.0000000000000186
 21
303.2697107330437234
 31
0.0
  0
LINE
  5
208
100
AcDbEntity
100
AcDbLine
  8
0
 62
256
370
-1
  6
ByLayer
 10
0.3000000000000193
 20
315.2697107330437234
 30
0.0
 11
0.0000000000000186
 21
315.2697107330437234
 31
0.0
  0
LINE
  5
209
100
AcDbEntity
100
AcDbLine
  8
00
 62
256
370
-1
  6
ByLayer
 10
544.4922882137732358
 20
221.6106073923199915
 30
0.0
 11
544.4922882137732358
 21
209.6106073923199915
 31
0.0
  0
LINE
  5
20A
100
AcDbEntity
100
AcDbLine
  8
00
 62
256
370
-1
  6
ByLayer
 10
614.4922882137732358
 20
221.6106073923199915
 30
0.0
 11
614.4922882137732358
 21
209.6106073923199915
 31
0.0
  0
LINE
  5
20B
100
AcDbEntity
100
AcDbLine
  8
00
 62
256
370
-1
  6
ByLayer
 10
544.4922882137732358
 20
221.6106073923199915
 30
0.0
 11
546.4922882137732358
 21
221.6106073923199915
 31
0.0
  0
LINE
  5
20C
100
AcDbEntity
100
AcDbLine
  8
00
 62
256
370
-1
  6
ByLayer
 10
544.4922882137732358
 20
209.6106073923199915
 30
0.0
 11
546.4922882137732358
 21
209.6106073923199915
 31
0.0
  0
ARC
  5
20D
100
AcDbEntity
  8
00
 62
7
370
-1
  6
CONTINUOUS
100
AcDbCircle
 10
546.4922882137732358
 20
211.5219004026021139
 30
0.0
 40
0.5999999999999943
100
AcDbArc
 50
90.0
 51
90.0
  0
ARC
  5
20E
100
AcDbEntity
  8
00
 62
7
370
-1
  6
CONTINUOUS
100
AcDbCircle
 10
546.4922882137732358
 20
219.6993143820378691
 30
0.0
 40
0.5999999999999943
100
AcDbArc
 50
270.0
 51
270.0
  0
LINE
  5
20F
100
AcDbEntity
100
AcDbLine
  8
00
 62
256
370
-1
  6
DASHED
 10
556.4922882137732358
 20
221.6106073923199915
 30
0.0
 11
556.4922882137732358
 21
209.6106073923199915
 31
0.0
  0
CIRCLE
  5
210
100
AcDbEntity
100
AcDbCircle
  8
00
 62
256
370
-1
  6
DASHED
 10
554.4922882137732358
 20
219.6993143820378691
 30
0.0
 40
0.5999999999999943
  0
CIRCLE
  5
211
100
AcDbEntity
100
AcDbCircle
  8
00
 62
256
370
-1
  6
DASHED
 10
554.4922882137732358
 20
211.5219004026021139
 30
0.0
 40
0.5999999999999943
  0
LINE
  5
212
100
AcDbEntity
100
AcDbLine
  8
00
 62
256
370
-1
  6
DASHED
 10
546.4922882137732358
 20
221.6106073923199915
 30
0.0
 11
556.4922882137732358
 21
221.6106073923199915
 31
0.0
  0
LINE
  5
213
100
AcDbEntity
100
AcDbLine
  8
00
 62
256
370
-1
  6
DASHED
 10
546.4922882137732358
 20
209.6106073923199915
 30
0.0
 11
556.4922882137732358
 21
209.6106073923199915
 31
0.0
  0
LINE
  5
214
100
AcDbEntity
100
AcDbLine
  8
00
 62
256
370
-1
  6
ByLayer
 10
614.4922882137732358
 20
221.6106073923199915
 30
0.0
 11
614.4922882137732358
 21
209.6106073923199915
 31
0.0
  0
CIRCLE
  5
215
100
AcDbEntity
100
AcDbCircle
  8
00
 62
256
370
-1
  6
ByLayer
 10
612.4922882137732358
 20
219.6993143820378691
 30
0.0
 40
0.5999999999999943
  0
CIRCLE
  5
216
100
AcDbEntity
100
AcDbCircle
  8
00
 62
256
370
-1
  6
ByLayer
 10
612.4922882137732358
 20
211.5219004026021139
 30
0.0
 40
0.5999999999999943
  0
LINE
  5
217
100
AcDbEntity
100
AcDbLine
  8
00
 62
256
370
-1
  6
ByLayer
 10
612.4922882137732358
 20
209.6106073923199915
 30
0.0
 11
614.4922882137732358
 21
209.6106073923199915
 31
0.0
  0
LINE
  5
218
100
AcDbEntity
100
AcDbLine
  8
00
 62
256
370
-1
  6
ByLayer
 10
612.4922882137732358
 20
221.6106073923199915
 30
0.0
 11
614.4922882137732358
 21
221.6106073923199915
 31
0.0
  0
LINE
  5
219
100
AcDbEntity
100
AcDbLine
  8
00
 62
256
370
-1
  6
DASHED
 10
602.4922882137732358
 20
221.6106073923199915
 30
0.0
 11
602.4922882137732358
 21
209.6106073923199915
 31
0.0
  0
CIRCLE
  5
21A
100
AcDbEntity
100
AcDbCircle
  8
00
 62
256
370
-1
  6
DASHED
 10
604.4922882137732358
 20
219.6993143820378691
 30
0.0
 40
0.5999999999999943
  0
CIRCLE
  5
21B
100
AcDbEntity
100
AcDbCircle
  8
00
 62
256
370
-1
  6
DASHED
 10
604.4922882137732358
 20
211.5219004026021139
 30
0.0
 40
0.5999999999999943
  0
LINE
  5
21C
100
AcDbEntity
100
AcDbLine
  8
00
 62
256
370
-1
  6
DASHED
 10
602.4922882137732358
 20
209.6106073923199915
 30
0.0
 11
612.4922882137732358
 21
209.6106073923199915
 31
0.0
  0
LINE
  5
21D
100
AcDbEntity
100
AcDbLine
  8
00
 62
256
370
-1
  6
DASHED
 10
602.4922882137732358
 20
221.6106073923199915
 30
0.0
 11
612.4922882137732358
 21
221.6106073923199915
 31
0.0
  0
LINE
  5
21E
100
AcDbEntity
100
AcDbLine
  8
0
 62
256
370
-1
  6
ByLayer
 10
0.3000000000000281
 20
217.6106073923200199
 30
0.0
 11
64.8645760424468705
 21
217.6106073923200199
 31
0.0
  0
LINE
  5
21F
100
AcDbEntity
100
AcDbLine
  8
0
 62
256
370
-1
  6
ByLayer
 10
0.300000000000028
 20
213.6106073923200199
 30
0.0
 11
63.6338068116776441
 21
213.6106073923200199
 31
0.0
  0
LINE
  5
220
100
AcDbEntity
100
AcDbLine
  8
0
 62
256
370
-1
  6
ByLayer
 10
0.300000000000028
 20
221.6106073923200199
 30
0.0
 11
0.0000000000000273
 21
221.6106073923200199
 31
0.0
  0
LINE
  5
221
100
AcDbEntity
100
AcDbLine
  8
00
 62
256
370
-1
  6
DASHED
 10
548.4922882137731222
 20
217.6106073923200199
 30
0.0
 11
552.4922882137731222
 21
217.6106073923200199
 31
0.0
  0
LINE
  5
222
100
AcDbEntity
100
AcDbLine
  8
00
 62
256
370
-1
  6
DASHED
 10
548.4922882137731222
 20
213.6106073923200199
 30
0.0
 11
552.4922882137731222
 21
213.6106073923200199
 31
0.0
  0
LINE
  5
223
100
AcDbEntity
100
AcDbLine
  8
00
 62
256
370
-1
  6
DASHED
 10
606.4922882137731222
 20
213.6106073923200199
 30
0.0
 11
610.4922882137731222
 21
213.6106073923200199
 31
0.0
  0
LINE
  5
224
100
AcDbEntity
100
AcDbLine
  8
00
 62
256
370
-1
  6
DASHED
 10
606.4922882137731222
 20
217.6106073923200483
 30
0.0
 11
610.4922882137731222
 21
217.6106073923200483
 31
0.0
  0
LINE
  5
225
100
AcDbEntity
100
AcDbLine
  8
00
 62
256
370
-1
  6
ByLayer
 10
329.3854748603364442
 20
327.3999999999999773
 30
0.0
 11
329.3854748603364442
 21
0.0
 31
0.0
  0
LINE
  5
226
100
AcDbEntity
100
AcDbLine
  8
00
 62
256
370
-1
  6
ByLayer
 10
329.3854748603364442
 20
327.3999999999999773
 30
0.0
 11
329.4271033261137518
 21
327.1499999999999773
 31
0.0
  0
LINE
  5
227
100
AcDbEntity
100
AcDbLine
  8
00
 62
256
370
-1
  6
ByLayer
 10
329.4271033261137518
 20
327.1499999999999773
 30
0.0
 11
329.3438463945591366
 21
327.1499999999999773
 31
0.0
  0
LINE
  5
228
100
AcDbEntity
100
AcDbLine
  8
00
 62
256
370
-1
  6
ByLayer
 10
329.3438463945591366
 20
327.1499999999999773
 30
0.0
 11
329.3854748603364442
 21
327.3999999999999773
 31
0.0
  0
LINE
  5
229
100
AcDbEntity
100
AcDbLine
  8
00
 62
256
370
-1
  6
ByLayer
 10
329.3854748603364442
 20
0.0
 30
0.0
 11
329.3438463945591366
 21
0.25
 31
0.0
  0
LINE
  5
22A
100
AcDbEntity
100
AcDbLine
  8
00
 62
256
370
-1
  6
ByLayer
 10
329.3438463945591366
 20
0.25
 30
0.0
 11
329.4271033261137518
 21
0.25
 31
0.0
  0
LINE
  5
22B
100
AcDbEntity
100
AcDbLine
  8
00
 62
256
370
-1
  6
ByLayer
 10
329.4271033261137518
 20
0.25
 30
0.0
 11
329.3854748603364442
 21
0.0
 31
0.0
  0
MTEXT
  5
22C
100
AcDbEntity
100
AcDbMText
  8
00
 62
256
370
-1
  6
ByLayer
 10
329.1979748603364442
 20
163.6999999999999886
 30
0.0
 40
0.25
 41
30.0
 71
5
 72
0
  1
327.4
  7
standard
 50
450.0
 73
1
 44
1.0
  0
LINE
  5
22D
100
AcDbEntity
100
AcDbLine
  8
00
 62
256
370
-1
  6
ByLayer
 10
329.4479748603364442
 20
327.3999999999999773
 30
0.0
 11
329.5104748603364442
 21
327.3999999999999773
 31
0.0
  0
LINE
  5
22E
100
AcDbEntity
100
AcDbLine
  8
00
 62
256
370
-1
  6
ByLayer
 10
329.3854748603364442
 20
-0.0625
 30
0.0
 11
329.3854748603364442
 21
-0.125
 31
0.0
  0
ENDSEC
  0
SECTION
  2
OBJECTS
  0
DICTIONARY
  5
C
100
AcDbDictionary
280
0
281
1
  3
ACAD_GROUP
350
D
  3
ACAD_LAYOUT
350
1A
  3
ACAD_MLINESTYLE
350
17
  3
ACAD_PLOTSETTINGS
350
19
  3
ACAD_PLOTSTYLENAME
350
E
  3
AcDbVariableDictionary
350
22F
  0
DICTIONARY
  5
D
100
AcDbDictionary
280
0
281
1
  0
ACDBDICTIONARYWDFLT
  5
E
100
AcDbDictionary
281
1
  3
Normal
350
F
100
AcDbDictionaryWithDefault
340
F
  0
ACDBPLACEHOLDER
  5
F
  0
DICTIONARY
  5
17
100
AcDbDictionary
280
0
281
1
  3
Standard
350
18
  0
MLINESTYLE
  5
18
100
AcDbMlineStyle
  2
STANDARD
 70
0
  3

 62
256
 51
90.0
 52
90.0
 71
2
 49
0.5
 62
256
  6
BYLAYER
 49
-0.5
 62
256
  6
BYLAYER
  0
DICTIONARY
  5
19
100
AcDbDictionary
280
0
281
1
  0
DICTIONARY
  5
1A
100
AcDbDictionary
281
1
  3
Layout1
350
1E
  3
Layout2
350
26
  3
Model
350
22
  0
LAYOUT
  5
1E
100
AcDbPlotSettings
  1

  2
C:\Program Files\AutoCAD 2002\plotters\DWF ePlot (optimized for plotting).pc3
  4

  6

 40
0.0
 41
0.0
 42
0.0
 43
0.0
 44
0.0
 45
0.0
 46
0.0
 47
0.0
 48
0.0
 49
0.0
140
0.0
141
0.0
142
1.0
143
1.0
 70
688
 72
0
 73
0
 74
5
  7

 75
16
147
1.0
148
0.0
149
0.0
100
AcDbLayout
  1
Layout1
 70
1
 71
1
 10
0.0
 20
0.0
 11
420.0
 21
297.0
 12
0.0
 22
0.0
 32
0.0
 14
100000000000000000000.0
 24
100000000000000000000.0
 34
100000000000000000000.0
 15
-100000000000000000000.0
 25
-100000000000000000000.0
 35
-100000000000000000000.0
146
0.0
 13
0.0
 23
0.0
 33
0.0
 16
1.0
 26
0.0
 36
0.0
 17
0.0
 27
1.0
 37
0.0
 76
0
330
1B
  0
LAYOUT
  5
22
100
AcDbPlotSettings
  1

  2
C:\Program Files\AutoCAD 2002\plotters\DWF ePlot (optimized for plotting).pc3
  4

  6

 40
0.0
 41
0.0
 42
0.0
 43
0.0
 44
0.0
 45
0.0
 46
0.0
 47
0.0
 48
0.0
 49
0.0
140
0.0
141
0.0
142
1.0
143
1.0
 70
1712
 72
0
 73
0
 74
0
  7

 75
0
147
1.0
148
0.0
149
0.0
100
AcDbLayout
  1
Model
 70
1
 71
0
 10
0.0
 20
0.0
 11
12.0
 21
9.0
 12
0.0
 22
0.0
 32
0.0
 14
0.0
 24
0.0
 34
0.0
 15
0.0
 25
0.0
 35
0.0
146
0.0
 13
0.0
 23
0.0
 33
0.0
 16
1.0
 26
0.0
 36
0.0
 17
0.0
 27
1.0
 37
0.0
 76
0
330
1F
  0
LAYOUT
  5
26
100
AcDbPlotSettings
  1

  2
C:\Program Files\AutoCAD 2002\plotters\DWF ePlot (optimized for plotting).pc3
  4

  6

 40
0.0
 41
0.0
 42
0.0
 43
0.0
 44
0.0
 45
0.0
 46
0.0
 47
0.0
 48
0.0
 49
0.0
140
0.0
141
0.0
142
1.0
143
1.0
 70
688
 72
0
 73
0
 74
5
  7

 75
16
147
1.0
148
0.0
149
0.0
100
AcDbLayout
  1
Layout2
 70
1
 71
2
 10
0.0
 20
0.0
 11
12.0
 21
9.0
 12
0.0
 22
0.0
 32
0.0
 14
0.0
 24
0.0
 34
0.0
 15
0.0
 25
0.0
 35
0.0
146
0.0
 13
0.0
 23
0.0
 33
0.0
 16
1.0
 26
0.0
 36
0.0
 17
0.0
 27
1.0
 37
0.0
 76
0
330
23
  0
DICTIONARY
  5
22F
100
AcDbDictionary
281
1
  3
DIMASSOC
350
231
  3
HIDETEXT
350
230
  0
DICTIONARYVAR
  5
230
100
DictionaryVariables
280
0
  1
2
  0
DICTIONARYVAR
  5
231
100
DictionaryVariables
280
0
  1
1
  0
ENDSEC
  0
EOF
