  0
SECTION
  2
HEADER
  9
$ACADVER
  1
AC1012
  9
$DWGCODEPAGE
  3
ansi_1252
  9
$INSBASE
 10
0.0
 20
0.0
 30
0.0
  9
$EXTMIN
 10
-0.939693
 20
-0.984808
 30
0.0
  9
$EXTMAX
 10
13.0
 20
12.984808
 30
0.0
  9
$LIMMIN
 10
0.0
 20
0.0
  9
$LIMMAX
 10
0.0
 20
0.0
  9
$ORTHOMODE
 70
     0
  9
$REGENMODE
 70
     1
  9
$FILLMODE
 70
     1
  9
$QTEXTMODE
 70
     0
  9
$MIRRTEXT
 70
     1
  9
$DRAGMODE
 70
     2
  9
$LTSCALE
 40
1.0
  9
$OSMODE
 70
     0
  9
$ATTMODE
 70
     1
  9
$TEXTSIZE
 40
0.2
  9
$TRACEWID
 40
0.05
  9
$TEXTSTYLE
  7
STANDARD
  9
$CLAYER
  8
0
  9
$CELTYPE
  6
CONTINUOUS
  9
$CECOLOR
 62
   256
  9
$CELTSCALE
 40
1.0
  9
$DELOBJ
 70
     1
  9
$DISPSILH
 70
     0
  9
$DIMSCALE
 40
1.0
  9
$DIMASZ
 40
0.18
  9
$DIMEXO
 40
0.0625
  9
$DIMDLI
 40
0.38
  9
$DIMRND
 40
0.0
  9
$DIMDLE
 40
0.0
  9
$DIMEXE
 40
0.18
  9
$DIMTP
 40
0.0
  9
$DIMTM
 40
0.0
  9
$DIMTXT
 40
0.18
  9
$DIMCEN
 40
0.09
  9
$DIMTSZ
 40
0.0
  9
$DIMTOL
 70
     0
  9
$DIMLIM
 70
     0
  9
$DIMTIH
 70
     1
  9
$DIMTOH
 70
     1
  9
$DIMSE1
 70
     0
  9
$DIMSE2
 70
     0
  9
$DIMTAD
 70
     0
  9
$DIMZIN
 70
     0
  9
$DIMBLK
  1

  9
$DIMASO
 70
     1
  9
$DIMSHO
 70
     1
  9
$DIMPOST
  1

  9
$DIMAPOST
  1

  9
$DIMALT
 70
     0
  9
$DIMALTD
 70
     2
  9
$DIMALTF
 40
25.4
  9
$DIMLFAC
 40
1.0
  9
$DIMTOFL
 70
     0
  9
$DIMTVP
 40
0.0
  9
$DIMTIX
 70
     0
  9
$DIMSOXD
 70
     0
  9
$DIMSAH
 70
     0
  9
$DIMBLK1
  1

  9
$DIMBLK2
  1

  9
$DIMSTYLE
  2
STANDARD
  9
$DIMCLRD
 70
     0
  9
$DIMCLRE
 70
     0
  9
$DIMCLRT
 70
     0
  9
$DIMTFAC
 40
1.0
  9
$DIMGAP
 40
0.09
  9
$DIMJUST
 70
     0
  9
$DIMSD1
 70
     0
  9
$DIMSD2
 70
     0
  9
$DIMTOLJ
 70
     1
  9
$DIMTZIN
 70
     0
  9
$DIMALTZ
 70
     0
  9
$DIMALTTZ
 70
     0
  9
$DIMFIT
 70
     0
  9
$DIMUPT
 70
     0
  9
$DIMUNIT
 70
     2
  9
$DIMDEC
 70
     4
  9
$DIMTDEC
 70
     4
  9
$DIMALTU
 70
     2
  9
$DIMALTTD
 70
     2
  9
$DIMTXSTY
  7
STANDARD
  9
$DIMAUNIT
 70
     0
  9
$LUNITS
 70
     2
  9
$LUPREC
 70
     4
  9
$SKETCHINC
 40
0.1
  9
$FILLETRAD
 40
0.0
  9
$AUNITS
 70
     0
  9
$AUPREC
 70
     0
  9
$MENU
  1
acad
  9
$ELEVATION
 40
0.0
  9
$PELEVATION
 40
0.0
  9
$THICKNESS
 40
0.0
  9
$LIMCHECK
 70
     0
  9
$BLIPMODE
 70
     1
  9
$CHAMFERA
 40
0.0
  9
$CHAMFERB
 40
0.0
  9
$CHAMFERC
 40
0.0
  9
$CHAMFERD
 40
0.0
  9
$SKPOLY
 70
     0
  9
$TDCREATE
 40
2454036.795127315
  9
$TDUPDATE
 40
2454036.795127315
  9
$TDINDWG
 40
0.0000000000
  9
$TDUSRTIMER
 40
0.0000000000
  9
$USRTIMER
 70
     1
  9
$ANGBASE
 50
0.0
  9
$ANGDIR
 70
     0
  9
$PDMODE
 70
     0
  9
$PDSIZE
 40
0.0
  9
$PLINEWID
 40
0.0
  9
$COORDS
 70
     0
  9
$SPLFRAME
 70
     0
  9
$SPLINETYPE
 70
     6
  9
$SPLINESEGS
 70
     8
  9
$ATTDIA
 70
     0
  9
$ATTREQ
 70
     1
  9
$HANDLING
 70
     1
  9
$HANDSEED
  5
710
  9
$SURFTAB1
 70
     6
  9
$SURFTAB2
 70
     6
  9
$SURFTYPE
 70
     6
  9
$SURFU
 70
     6
  9
$SURFV
 70
     6
  9
$UCSNAME
  2

  9
$UCSORG
 10
0.0
 20
0.0
 30
0.0
  9
$UCSXDIR
 10
1.0
 20
0.0
 30
0.0
  9
$UCSYDIR
 10
0.0
 20
1.0
 30
0.0
  9
$PUCSNAME
  2

  9
$PUCSORG
 10
0.0
 20
0.0
 30
0.0
  9
$PUCSXDIR
 10
1.0
 20
0.0
 30
0.0
  9
$PUCSYDIR
 10
0.0
 20
1.0
 30
0.0
  9
$USERI1
 70
     0
  9
$USERI2
 70
     0
  9
$USERI3
 70
     0
  9
$USERI4
 70
     0
  9
$USERI5
 70
     0
  9
$USERR1
 40
0.0
  9
$USERR2
 40
0.0
  9
$USERR3
 40
0.0
  9
$USERR4
 40
0.0
  9
$USERR5
 40
0.0
  9
$WORLDVIEW
 70
     1
  9
$SHADEDGE
 70
     3
  9
$SHADEDIF
 70
    70
  9
$TILEMODE
 70
     1
  9
$MAXACTVP
 70
    16
  9
$PINSBASE
 10
0.0
 20
0.0
 30
0.0
  9
$PLIMCHECK
 70
     0
  9
$PEXTMIN
 10
1.000000E+20
 20
1.000000E+20
 30
1.000000E+20
  9
$PEXTMAX
 10
-1.000000E+20
 20
-1.000000E+20
 30
-1.000000E+20
  9
$PLIMMIN
 10
0.0
 20
0.0
  9
$PLIMMAX
 10
12.0
 20
9.0
  9
$UNITMODE
 70
     0
  9
$VISRETAIN
 70
     0
  9
$PLINEGEN
 70
     1
  9
$PSLTSCALE
 70
     0
  9
$TREEDEPTH
 70
  3020
  9
$PICKSTYLE
 70
     1
  9
$CMLSTYLE
  2
STANDARD
  9
$CMLJUST
 70
     0
  9
$CMLSCALE
 40
1.0
  9
$SAVEIMAGES
 70
     0
  0
ENDSEC
  0
SECTION
  2
CLASSES
  0
CLASS
  1
LWPOLYLINE
  2
AcDbPolyline
  3
"AutoCAD"
 90
        0
280
     0
281
     1
  0
CLASS
  1
IMAGE
  2
AcDbRasterImage
  3
ISM
 90
      127
280
     0
281
     1
  0
CLASS
  1
OLE2FRAME
  2
AcDbOle2Frame
  3
""
 90
        0
280
     0
281
     1
  0
CLASS
  1
HATCH
  2
AcDbHatch
  3
"ACAD_SEDONA"
 90
        0
280
     0
281
     1
  0
CLASS
  1
DICTIONARYVAR
  2
AcDbDictionaryVar
  3
"AutoCAD"
 90
        0
280
     0
281
     0
  0
CLASS
  1
RASTERVARIABLES
  2
AcDbRasterVariables
  3
ISM
 90
        0
280
     0
281
     0
  0
CLASS
  1
IMAGEDEF
  2
AcDbRasterImageDef
  3
ISM
 90
        0
280
     0
281
     0
  0
CLASS
  1
IMAGEDEF_REACTOR
  2
AcDbRasterImageDefReactor
  3
ISM
 90
        1
280
     0
281
     0
  0
CLASS
  1
IDBUFFER
  2
AcDbIdBuffer
  3
"Acad"
 90
        0
280
     0
281
     0
  0
CLASS
  1
SPATIAL_FILTER
  2
AcDbSpatialFilter
  3
"Acad"
 90
        0
280
     0
281
     0
  0
CLASS
  1
XRECORD
  2
AcDbXrecord
  3
"<Built In>"
 90
        0
280
     0
281
     0
  0
CLASS
  1
SORTENTSTABLE
  2
AcDbSortentsTable
  3
"AutoCAD"
 90
        0
280
     0
281
     0
  0
CLASS
  1
LAYER_INDEX
  2
AcDbLayerIndex
  3
"Acad"
 90
        0
280
     0
281
     0
  0
CLASS
  1
SPATIAL_INDEX
  2
AcDbSpatialIndex
  3
"Acad"
 90
        0
280
     0
281
     0
  0
CLASS
  1
OBJECT_PTR
  2
CAseDLPNTableRecord
  3
"ASE-LPNTableRecord"
 90
        1
280
     0
281
     0
  0
CLASS
  1
LAYOUT
  2
AcDbLayout
  3
"AutoCAD 2000"
 90
        1
280
     0
281
     0
  0
CLASS
  1
PLOTSETTINGS
  2
AcDbPlotSettings
  3
"AutoCAD 2000"
 90
        1
280
     0
281
     0
  0
CLASS
  1
ACDBDICTIONARYWDFLT
  2
AcDbDictionaryWithDefault
  3
"AutoCAD 2000"
 90
        1
280
     0
281
     0
  0
CLASS
  1
ACDBPLACEHOLDER
  2
AcDbPlaceHolder
  3
"AutoCAD 2000"
 90
        1
280
     0
281
     0
  0
CLASS
  1
VBA_PROJECT
  2
AcDbVbaProject
  3
"acadvba"
 90
        1
280
     0
281
     0
  0
CLASS
  1
WIPEOUT
  2
AcDbWipeout
  3
WipeOut|AutoCAD Express Tool|expresstools@autodesk.com
 90
      127
280
     0
281
     1
  0
CLASS
  1
WIPEOUTVARIABLES
  2
AcDbWipeoutVariables
  3
WipeOut|AutoCAD Express Tool|expresstools@autodesk.com
 90
        0
280
     0
281
     0
  0
CLASS
  1
RTEXT
  2
RText
  3
RText|AutoCAD Express Tool|expresstools@autodesk.com
 90
        0
280
     0
281
     1
  0
CLASS
  1
ARCALIGNEDTEXT
  2
AcDbArcAlignedText
  3
ATEXT|AutoCAD Express Tool|expresstools@autodesk.com
 90
        0
280
     0
281
     1
  0
ENDSEC
  0
SECTION
  2
TABLES
  0
TABLE
  2
VPORT
  5
7
100
AcDbSymbolTable
 70
     1
  0
VPORT
  5
15
100
AcDbSymbolTableRecord
100
AcDbViewportTableRecord
  2
*ACTIVE
 70
     0
 10
0.0
 20
0.0
 11
1.0
 21
1.0
 12
6.591288
 22
4.579184
 13
0.0
 23
0.0
 14
1.0
 24
1.0
 15
0.0
 25
0.0
 16
0.0
 26
0.0
 36
1.0
 17
0.0
 27
0.0
 37
0.0
 40
9.158369
 41
0.688564
 42
50.0
 43
0.0
 44
0.0
 50
0.0
 51
0.0
 71
     0
 72
   100
 73
     1
 74
     1
 75
     0
 76
     0
 77
     0
 78
     0
  0
ENDTAB
  0
TABLE
  2
LTYPE
  5
4
100
AcDbSymbolTable
 70
     6
  0
LTYPE
  5
11
100
AcDbSymbolTableRecord
100
AcDbLinetypeTableRecord
  2
BYBLOCK
 70
    64
  3

 72
    65
 73
     0
 40
0.0
  0
LTYPE
  5
12
100
AcDbSymbolTableRecord
100
AcDbLinetypeTableRecord
  2
BYLAYER
 70
    64
  3

 72
    65
 73
     0
 40
0.0
  0
LTYPE
  5
13
100
AcDbSymbolTableRecord
100
AcDbLinetypeTableRecord
  2
CONTINUOUS
 70
    64
  3
Solid line
 72
    65
 73
     0
 40
0.0
  0
LTYPE
  5
1D
100
AcDbSymbolTableRecord
100
AcDbLinetypeTableRecord
  2
SOLID
 70
    64
  3

 72
    65
 73
     0
 40
0.0
  0
LTYPE
  5
1E
100
AcDbSymbolTableRecord
100
AcDbLinetypeTableRecord
  2
DASHED
 70
    64
  3

 72
    65
 73
     0
 40
0.0
  0
LTYPE
  5
1F
100
AcDbSymbolTableRecord
100
AcDbLinetypeTableRecord
  2
CENTER
 70
    64
  3

 72
    65
 73
     0
 40
0.0
  0
ENDTAB
  0
TABLE
  2
LAYER
  5
2
100
AcDbSymbolTable
 70
     4
  0
LAYER
  5
14
100
AcDbSymbolTableRecord
100
AcDbLayerTableRecord
  2
0
 70
     0
 62
     7
  6
CONTINUOUS
  0
LAYER
  5
20
100
AcDbSymbolTableRecord
100
AcDbLayerTableRecord
  2
1
 70
     0
 62
     1
  6
SOLID
  0
LAYER
  5
4DC
100
AcDbSymbolTableRecord
100
AcDbLayerTableRecord
  2
4
 70
     0
 62
     1
  6
SOLID
  0
LAYER
  5
609
100
AcDbSymbolTableRecord
100
AcDbLayerTableRecord
  2
3
 70
     0
 62
     1
  6
SOLID
  0
ENDTAB
  0
TABLE
  2
STYLE
  5
3
100
AcDbSymbolTable
 70
     1
  0
STYLE
  5
17
100
AcDbSymbolTableRecord
100
AcDbTextStyleTableRecord
  2
STANDARD
 70
     0
 40
0.0
 41
1.0
 50
0.0
 71
     0
 42
0.0
  3
txt
  4

  0
ENDTAB
  0
TABLE
  2
VIEW
  5
5
100
AcDbSymbolTable
 70
     0
  0
ENDTAB
  0
TABLE
  2
UCS
  5
6
100
AcDbSymbolTable
 70
     0
  0
ENDTAB
  0
TABLE
  2
APPID
  5
8
100
AcDbSymbolTable
 70
     1
  0
APPID
  5
16
100
AcDbSymbolTableRecord
100
AcDbRegAppTableRecord
  2
ACAD
 70
     0
  0
ENDTAB
  0
TABLE
  2
DIMSTYLE
  5
9
100
AcDbSymbolTable
 70
     1
  0
DIMSTYLE
105
18
100
AcDbSymbolTableRecord
100
AcDbDimStyleTableRecord
  2
STANDARD
 70
     0
  3

  4

  5

  6

  7

 40
1.0
 41
0.18
 42
0.0625
 43
0.38
 44
0.18
 45
0.0
 46
0.0
 47
0.0
 48
0.0
 71
     0
 72
     0
 73
     1
 74
     1
 75
     0
 76
     0
 77
     0
 78
     0
140
0.18
141
0.09
142
0.0
143
25.4
144
1.0
145
0.0
146
1.0
147
0.09
170
     0
171
     2
172
     0
173
     0
174
     0
175
     0
176
     0
177
     0
178
     0
270
     2
271
     4
272
     4
273
     2
274
     2
275
     0
280
     0
281
     0
282
     0
283
     1
284
     0
285
     0
286
     0
287
     0
288
     0
340
17
  0
ENDTAB
  0
TABLE
  2
BLOCK_RECORD
  5
1
100
AcDbSymbolTable
 70
     0
  0
BLOCK_RECORD
  5
A
100
AcDbSymbolTableRecord
100
AcDbBlockTableRecord
  2
*MODEL_SPACE
  0
BLOCK_RECORD
  5
B
100
AcDbSymbolTableRecord
100
AcDbBlockTableRecord
  2
*PAPER_SPACE
  0
ENDTAB
  0
ENDSEC
  0
SECTION
  2
BLOCKS
  0
BLOCK
  5
D
100
AcDbEntity
  8
0
100
AcDbBlockBegin
  2
*MODEL_SPACE
 70
     0
 10
0.0
 20
0.0
 30
0.0
  3
*MODEL_SPACE
  1

  0
ENDBLK
  5
E
100
AcDbEntity
  8
0
100
AcDbBlockEnd
  0
BLOCK
  5
F
100
AcDbEntity
 67
     1
  8
0
100
AcDbBlockBegin
  2
*PAPER_SPACE
 70
     0
 10
0.0
 20
0.0
 30
0.0
  3
*PAPER_SPACE
  1

  0
ENDBLK
  5
10
100
AcDbEntity
 67
     1
  8
0
100
AcDbBlockEnd
  0
ENDSEC
  0
SECTION
  2
ENTITIES
  0
ARC
  5
21
100
AcDbEntity
  8
1
  6
SOLID
 62
     0
100
AcDbCircle
 10
1.037297
 20
1.123148
 30
0.0
 40
0.094094
210
0.0
220
0.0
230
1.0
100
AcDbArc
 50
244.447662
 51
264.399638
  0
ARC
  5
22
100
AcDbEntity
  8
1
  6
SOLID
 62
     0
100
AcDbCircle
 10
1.413552
 20
-35.113651
 30
0.0
 40
36.14521
210
0.0
220
0.0
230
1.0
100
AcDbArc
 50
89.102792
 51
90.61099
  0
ARC
  5
23
100
AcDbEntity
  8
1
  6
SOLID
 62
     0
100
AcDbCircle
 10
1.990978
 20
0.318204
 30
0.0
 40
0.709031
210
0.0
220
0.0
230
1.0
100
AcDbArc
 50
83.613554
 51
90.925418
  0
ARC
  5
24
100
AcDbEntity
  8
1
  6
SOLID
 62
     0
100
AcDbCircle
 10
2.094011
 20
1.06413
 30
0.0
 40
0.047847
210
0.0
220
0.0
230
1.0
100
AcDbArc
 50
239.665901
 51
294.555388
  0
LINE
  5
25
100
AcDbEntity
  8
1
  6
SOLID
 62
     0
100
AcDbLine
 10
2.113895
 20
1.020611
 30
0.0
 11
2.129735
 21
1.027281
 31
0.0
  0
ARC
  5
26
100
AcDbEntity
  8
1
  6
SOLID
 62
     0
100
AcDbCircle
 10
2.59733
 20
-24.00482
 30
0.0
 40
25.036468
210
0.0
220
0.0
230
1.0
100
AcDbArc
 50
88.685338
 51
91.07015
  0
ARC
  5
27
100
AcDbEntity
  8
1
  6
SOLID
 62
     0
100
AcDbCircle
 10
3.179664
 20
0.981673
 30
0.0
 40
0.044102
210
0.0
220
0.0
230
1.0
100
AcDbArc
 50
37.733004
 51
100.343771
  0
ARC
  5
28
100
AcDbEntity
  8
1
  6
SOLID
 62
     0
100
AcDbCircle
 10
3.188698
 20
0.959836
 30
0.0
 40
0.055244
210
0.0
220
0.0
230
1.0
100
AcDbArc
 50
5.106922
 51
62.106828
  0
ARC
  5
29
100
AcDbEntity
  8
1
  6
SOLID
 62
     0
100
AcDbCircle
 10
3.201389
 20
0.939833
 30
0.0
 40
0.049123
210
0.0
220
0.0
230
1.0
100
AcDbArc
 50
-34.979632
 51
30.482424
  0
ARC
  5
2A
100
AcDbEntity
  8
1
  6
SOLID
 62
     0
100
AcDbCircle
 10
3.185435
 20
0.906879
 30
0.0
 40
0.056407
210
0.0
220
0.0
230
1.0
100
AcDbArc
 50
-32.733916
 51
4.873953
  0
ARC
  5
2B
100
AcDbEntity
  8
1
  6
SOLID
 62
     0
100
AcDbCircle
 10
3.172464
 20
0.873131
 30
0.0
 40
0.060507
210
0.0
220
0.0
230
1.0
100
AcDbArc
 50
-30.596151
 51
3.075808
  0
ARC
  5
2C
100
AcDbEntity
  8
1
  6
SOLID
 62
     0
100
AcDbCircle
 10
3.148054
 20
0.83404
 30
0.0
 40
0.076941
210
0.0
220
0.0
230
1.0
100
AcDbArc
 50
-32.597805
 51
6.18824
  0
ARC
  5
2D
100
AcDbEntity
  8
1
  6
SOLID
 62
     0
100
AcDbCircle
 10
3.331921
 20
0.749908
 30
0.0
 40
0.126465
210
0.0
220
0.0
230
1.0
100
AcDbArc
 50
160.276099
 51
181.690255
  0
ARC
  5
2E
100
AcDbEntity
  8
1
  6
SOLID
 62
     0
100
AcDbCircle
 10
3.240697
 20
0.720599
 30
0.0
 40
0.043502
210
0.0
220
0.0
230
1.0
100
AcDbArc
 50
143.984377
 51
186.218698
  0
ARC
  5
2F
100
AcDbEntity
  8
1
  6
SOLID
 62
     0
100
AcDbCircle
 10
3.063756
 20
0.746225
 30
0.0
 40
0.137095
210
0.0
220
0.0
230
1.0
100
AcDbArc
 50
335.551966
 51
347.215071
  0
ARC
  5
30
100
AcDbEntity
  8
1
  6
SOLID
 62
     0
100
AcDbCircle
 10
3.132223
 20
0.686002
 30
0.0
 40
0.056443
210
0.0
220
0.0
230
1.0
100
AcDbArc
 50
-32.278891
 51
3.538727
  0
ARC
  5
31
100
AcDbEntity
  8
1
  6
SOLID
 62
     0
100
AcDbCircle
 10
3.128544
 20
0.651111
 30
0.0
 40
0.051618
210
0.0
220
0.0
230
1.0
100
AcDbArc
 50
-33.462398
 51
5.278414
  0
ARC
  5
32
100
AcDbEntity
  8
1
  6
SOLID
 62
     0
100
AcDbCircle
 10
3.107195
 20
0.618844
 30
0.0
 40
0.064524
210
0.0
220
0.0
230
1.0
100
AcDbArc
 50
-31.353838
 51
3.381246
  0
ARC
  5
33
100
AcDbEntity
  8
1
  6
SOLID
 62
     0
100
AcDbCircle
 10
3.106017
 20
0.580935
 30
0.0
 40
0.056445
210
0.0
220
0.0
230
1.0
100
AcDbArc
 50
-31.59109
 51
4.405089
  0
ARC
  5
34
100
AcDbEntity
  8
1
  6
SOLID
 62
     0
100
AcDbCircle
 10
3.083727
 20
0.542759
 30
0.0
 40
0.070896
210
0.0
220
0.0
230
1.0
100
AcDbArc
 50
-32.889483
 51
6.973502
  0
ARC
  5
35
100
AcDbEntity
  8
1
  6
SOLID
 62
     0
100
AcDbCircle
 10
3.039808
 20
0.531075
 30
0.0
 40
0.10687
210
0.0
220
0.0
230
1.0
100
AcDbArc
 50
303.144221
 51
345.468892
  0
ARC
  5
36
100
AcDbEntity
  8
1
  6
SOLID
 62
     0
100
AcDbCircle
 10
3.13589
 20
0.274835
 30
0.0
 40
0.170956
210
0.0
220
0.0
230
1.0
100
AcDbArc
 50
102.722978
 51
115.103171
  0
ARC
  5
37
100
AcDbEntity
  8
1
  6
SOLID
 62
     0
100
AcDbCircle
 10
3.007701
 20
-1.486565
 30
0.0
 40
1.917017
210
0.0
220
0.0
230
1.0
100
AcDbArc
 50
88.336189
 51
94.670817
  0
ARC
  5
38
100
AcDbEntity
  8
1
  6
SOLID
 62
     0
100
AcDbCircle
 10
2.826623
 20
0.268219
 30
0.0
 40
0.157854
210
0.0
220
0.0
230
1.0
100
AcDbArc
 50
63.846932
 51
80.897198
  0
ARC
  5
39
100
AcDbEntity
  8
1
  6
SOLID
 62
     0
100
AcDbCircle
 10
2.879604
 20
0.276771
 30
0.0
 40
0.134171
210
0.0
220
0.0
230
1.0
100
AcDbArc
 50
59.405731
 51
82.894598
  0
ARC
  5
3A
100
AcDbEntity
  8
1
  6
SOLID
 62
     0
100
AcDbCircle
 10
2.766194
 20
0.068033
 30
0.0
 40
0.371672
210
0.0
220
0.0
230
1.0
100
AcDbArc
 50
42.132626
 51
60.733974
  0
LINE
  5
3B
100
AcDbEntity
  8
1
  6
SOLID
 62
     0
100
AcDbLine
 10
3.041823
 20
0.317369
 30
0.0
 11
3.089207
 21
0.234136
 31
0.0
  0
LINE
  5
3C
100
AcDbEntity
  8
1
  6
SOLID
 62
     0
100
AcDbLine
 10
3.089207
 20
0.234136
 30
0.0
 11
3.092958
 21
0.216767
 31
0.0
  0
LINE
  5
3D
100
AcDbEntity
  8
1
  6
SOLID
 62
     0
100
AcDbLine
 10
3.092958
 20
0.216767
 30
0.0
 11
3.100462
 21
0.198564
 31
0.0
  0
ARC
  5
3E
100
AcDbEntity
  8
1
  6
SOLID
 62
     0
100
AcDbCircle
 10
2.655342
 20
0.15931
 30
0.0
 40
0.446847
210
0.0
220
0.0
230
1.0
100
AcDbArc
 50
-8.268972
 51
5.039756
  0
ARC
  5
3F
100
AcDbEntity
  8
1
  6
SOLID
 62
     0
100
AcDbCircle
 10
3.130814
 20
0.072673
 30
0.0
 40
0.040092
210
0.0
220
0.0
230
1.0
100
AcDbArc
 50
146.082392
 51
191.799235
  0
ARC
  5
40
100
AcDbEntity
  8
1
  6
SOLID
 62
     0
100
AcDbCircle
 10
2.728728
 20
0.220123
 30
0.0
 40
0.394816
210
0.0
220
0.0
230
1.0
100
AcDbArc
 50
289.025291
 51
336.782011
  0
LINE
  5
41
100
AcDbEntity
  8
1
  6
SOLID
 62
     0
100
AcDbLine
 10
2.857433
 20
-0.153126
 30
0.0
 11
2.853681
 21
-0.156461
 31
0.0
  0
LINE
  5
42
100
AcDbEntity
  8
1
  6
SOLID
 62
     0
100
AcDbLine
 10
2.853681
 20
-0.156461
 30
0.0
 11
2.860907
 21
-0.159101
 31
0.0
  0
LINE
  5
43
100
AcDbEntity
  8
1
  6
SOLID
 62
     0
100
AcDbLine
 10
2.860907
 20
-0.159101
 30
0.0
 11
2.911763
 21
-0.163687
 31
0.0
  0
LINE
  5
44
100
AcDbEntity
  8
1
  6
SOLID
 62
     0
100
AcDbLine
 10
2.911763
 20
-0.163687
 30
0.0
 11
2.926493
 21
-0.170773
 31
0.0
  0
ARC
  5
45
100
AcDbEntity
  8
1
  6
SOLID
 62
     0
100
AcDbCircle
 10
2.894179
 20
-0.237418
 30
0.0
 40
0.074065
210
0.0
220
0.0
230
1.0
100
AcDbArc
 50
4.26197
 51
64.133093
  0
ARC
  5
46
100
AcDbEntity
  8
1
  6
SOLID
 62
     0
100
AcDbCircle
 10
2.856773
 20
-0.251133
 30
0.0
 40
0.112914
210
0.0
220
0.0
230
1.0
100
AcDbArc
 50
-24.786336
 51
9.800806
  0
ARC
  5
47
100
AcDbEntity
  8
1
  6
SOLID
 62
     0
100
AcDbCircle
 10
2.919999
 20
-0.303398
 30
0.0
 40
0.039595
210
0.0
220
0.0
230
1.0
100
AcDbArc
 50
-34.535502
 51
7.148142
  0
ARC
  5
48
100
AcDbEntity
  8
1
  6
SOLID
 62
     0
100
AcDbCircle
 10
3.031523
 20
-0.348632
 30
0.0
 40
0.082131
210
0.0
220
0.0
230
1.0
100
AcDbArc
 50
163.892028
 51
184.950878
  0
ARC
  5
49
100
AcDbEntity
  8
1
  6
SOLID
 62
     0
100
AcDbCircle
 10
2.883982
 20
-0.341754
 30
0.0
 40
0.067183
210
0.0
220
0.0
230
1.0
100
AcDbArc
 50
329.346329
 51
348.001827
  0
ARC
  5
4A
100
AcDbEntity
  8
1
  6
SOLID
 62
     0
100
AcDbCircle
 10
2.883464
 20
-0.380275
 30
0.0
 40
0.058469
210
0.0
220
0.0
230
1.0
100
AcDbArc
 50
-32.048056
 51
4.186381
  0
ARC
  5
4B
100
AcDbEntity
  8
1
  6
SOLID
 62
     0
100
AcDbCircle
 10
2.840854
 20
-0.406845
 30
0.0
 40
0.092276
210
0.0
220
0.0
230
1.0
100
AcDbArc
 50
334.483451
 51
357.232117
  0
ARC
  5
4C
100
AcDbEntity
  8
1
  6
SOLID
 62
     0
100
AcDbCircle
 10
2.865821
 20
-0.450866
 30
0.0
 40
0.058465
210
0.0
220
0.0
230
1.0
100
AcDbArc
 50
-32.048523
 51
4.188766
  0
ARC
  5
4D
100
AcDbEntity
  8
1
  6
SOLID
 62
     0
100
AcDbCircle
 10
2.858085
 20
-0.486221
 30
0.0
 40
0.057455
210
0.0
220
0.0
230
1.0
100
AcDbArc
 50
-32.60838
 51
4.324045
  0
ARC
  5
4E
100
AcDbEntity
  8
1
  6
SOLID
 62
     0
100
AcDbCircle
 10
2.850101
 20
-0.521614
 30
0.0
 40
0.056556
210
0.0
220
0.0
230
1.0
100
AcDbArc
 50
-31.573986
 51
4.49305
  0
ARC
  5
4F
100
AcDbEntity
  8
1
  6
SOLID
 62
     0
100
AcDbCircle
 10
2.824813
 20
-0.559537
 30
0.0
 40
0.07394
210
0.0
220
0.0
230
1.0
100
AcDbArc
 50
-30.016677
 51
6.453091
  0
ARC
  5
50
100
AcDbEntity
  8
1
  6
SOLID
 62
     0
100
AcDbCircle
 10
2.830519
 20
-0.600794
 30
0.0
 40
0.058474
210
0.0
220
0.0
230
1.0
100
AcDbArc
 50
-32.045844
 51
4.18582
  0
ARC
  5
51
100
AcDbEntity
  8
1
  6
SOLID
 62
     0
100
AcDbCircle
 10
2.806137
 20
-0.632231
 30
0.0
 40
0.073946
210
0.0
220
0.0
230
1.0
100
AcDbArc
 50
-28.391913
 51
0.318367
  0
ARC
  5
52
100
AcDbEntity
  8
1
  6
SOLID
 62
     0
100
AcDbCircle
 10
2.831104
 20
-0.664286
 30
0.0
 40
0.040205
210
0.0
220
0.0
230
1.0
100
AcDbArc
 50
308.844861
 51
355.56902
  0
ARC
  5
53
100
AcDbEntity
  8
1
  6
SOLID
 62
     0
100
AcDbCircle
 10
2.822199
 20
-0.682145
 30
0.0
 40
0.036679
210
0.0
220
0.0
230
1.0
100
AcDbArc
 50
280.160611
 51
338.480816
  0
ARC
  5
54
100
AcDbEntity
  8
1
  6
SOLID
 62
     0
100
AcDbCircle
 10
2.861127
 20
-0.784605
 30
0.0
 40
0.073869
210
0.0
220
0.0
230
1.0
100
AcDbArc
 50
116.065473
 51
137.442746
  0
ARC
  5
55
100
AcDbEntity
  8
1
  6
SOLID
 62
     0
100
AcDbCircle
 10
2.407703
 20
43.653781
 30
0.0
 40
44.39022
210
0.0
220
0.0
230
1.0
100
AcDbArc
 50
269.166434
 51
270.515024
  0
ARC
  5
56
100
AcDbEntity
  8
1
  6
SOLID
 62
     0
100
AcDbCircle
 10
1.753033
 20
-0.687217
 30
0.0
 40
0.045391
210
0.0
220
0.0
230
1.0
100
AcDbArc
 50
233.130493
 51
281.299756
  0
ARC
  5
57
100
AcDbEntity
  8
1
  6
SOLID
 62
     0
100
AcDbCircle
 10
1.708115
 20
-0.756576
 30
0.0
 40
0.03748
210
0.0
220
0.0
230
1.0
100
AcDbArc
 50
61.849152
 51
144.189876
  0
ARC
  5
58
100
AcDbEntity
  8
1
  6
SOLID
 62
     0
100
AcDbCircle
 10
1.267876
 20
31.976778
 30
0.0
 40
32.71399
210
0.0
220
0.0
230
1.0
100
AcDbArc
 50
268.838449
 51
270.717826
  0
LINE
  5
59
100
AcDbEntity
  8
1
  6
SOLID
 62
     0
100
AcDbLine
 10
0.604724
 20
-0.730477
 30
0.0
 11
0.579713
 21
-0.728253
 31
0.0
  0
ARC
  5
5A
100
AcDbEntity
  8
1
  6
SOLID
 62
     0
100
AcDbCircle
 10
0.621703
 20
-0.630918
 30
0.0
 40
0.106007
210
0.0
220
0.0
230
1.0
100
AcDbArc
 50
206.759843
 51
246.664769
  0
ARC
  5
5B
100
AcDbEntity
  8
1
  6
SOLID
 62
     0
100
AcDbCircle
 10
0.463117
 20
-0.685021
 30
0.0
 40
0.06425
210
0.0
220
0.0
230
1.0
100
AcDbArc
 50
5.693058
 51
30.815925
  0
ARC
  5
5C
100
AcDbEntity
  8
1
  6
SOLID
 62
     0
100
AcDbCircle
 10
0.587229
 20
-0.64228
 30
0.0
 40
0.06963
210
0.0
220
0.0
230
1.0
100
AcDbArc
 50
153.921882
 51
188.112808
  0
LINE
  5
5D
100
AcDbEntity
  8
1
  6
SOLID
 62
     0
100
AcDbLine
 10
0.524687
 20
-0.611672
 30
0.0
 11
0.523298
 21
-0.599861
 31
0.0
  0
LINE
  5
5E
100
AcDbEntity
  8
1
  6
SOLID
 62
     0
100
AcDbLine
 10
0.523298
 20
-0.599861
 30
0.0
 11
0.518712
 21
-0.597221
 31
0.0
  0
ARC
  5
5F
100
AcDbEntity
  8
1
  6
SOLID
 62
     0
100
AcDbCircle
 10
0.479425
 20
-0.468261
 30
0.0
 40
0.134811
210
0.0
220
0.0
230
1.0
100
AcDbArc
 50
270.870184
 51
286.943159
  0
ARC
  5
60
100
AcDbEntity
  8
1
  6
SOLID
 62
     0
100
AcDbCircle
 10
0.454133
 20
-0.562038
 30
0.0
 40
0.049295
210
0.0
220
0.0
230
1.0
100
AcDbArc
 50
236.02595
 51
303.684417
  0
ARC
  5
61
100
AcDbEntity
  8
1
  6
SOLID
 62
     0
100
AcDbCircle
 10
0.438639
 20
-0.541858
 30
0.0
 40
0.062238
210
0.0
220
0.0
230
1.0
100
AcDbArc
 50
223.342832
 51
258.833379
  0
ARC
  5
62
100
AcDbEntity
  8
1
  6
SOLID
 62
     0
100
AcDbCircle
 10
0.380185
 20
-0.602772
 30
0.0
 40
0.022475
210
0.0
220
0.0
230
1.0
100
AcDbArc
 50
54.060254
 51
125.999037
  0
ARC
  5
63
100
AcDbEntity
  8
1
  6
SOLID
 62
     0
100
AcDbCircle
 10
-0.254438
 20
0.416233
 30
0.0
 40
1.178038
210
0.0
220
0.0
230
1.0
100
AcDbArc
 50
296.313349
 51
301.836605
  0
LINE
  5
64
100
AcDbEntity
  8
1
  6
SOLID
 62
     0
100
AcDbLine
 10
0.267763
 20
-0.63974
 30
0.0
 11
0.264428
 21
-0.64113
 31
0.0
  0
ARC
  5
65
100
AcDbEntity
  8
1
  6
SOLID
 62
     0
100
AcDbCircle
 10
0.184631
 20
-0.519719
 30
0.0
 40
0.145286
210
0.0
220
0.0
230
1.0
100
AcDbArc
 50
276.55006
 51
303.314822
  0
ARC
  5
66
100
AcDbEntity
  8
1
  6
SOLID
 62
     0
100
AcDbCircle
 10
0.18914
 20
-0.594098
 30
0.0
 40
0.070992
210
0.0
220
0.0
230
1.0
100
AcDbArc
 50
238.469105
 51
279.783837
  0
LINE
  5
67
100
AcDbEntity
  8
1
  6
SOLID
 62
     0
100
AcDbLine
 10
0.152015
 20
-0.654608
 30
0.0
 11
0.109078
 21
-0.617508
 31
0.0
  0
LINE
  5
68
100
AcDbEntity
  8
1
  6
SOLID
 62
     0
100
AcDbLine
 10
0.109078
 20
-0.617508
 30
0.0
 11
0.106299
 21
-0.61723
 31
0.0
  0
ARC
  5
69
100
AcDbEntity
  8
1
  6
SOLID
 62
     0
100
AcDbCircle
 10
0.134204
 20
-0.638163
 30
0.0
 40
0.034883
210
0.0
220
0.0
230
1.0
100
AcDbArc
 50
143.123308
 51
177.571596
  0
ARC
  5
6A
100
AcDbEntity
  8
1
  6
SOLID
 62
     0
100
AcDbCircle
 10
-0.583862
 20
-0.234809
 30
0.0
 40
0.792643
210
0.0
220
0.0
230
1.0
100
AcDbArc
 50
321.331813
 51
329.535427
  0
ARC
  5
6B
100
AcDbEntity
  8
1
  6
SOLID
 62
     0
100
AcDbCircle
 10
-0.280851
 20
-0.572456
 30
0.0
 40
0.353003
210
0.0
220
0.0
230
1.0
100
AcDbArc
 50
315.765099
 51
333.482921
  0
ARC
  5
6C
100
AcDbEntity
  8
1
  6
SOLID
 62
     0
100
AcDbCircle
 10
-0.264028
 20
-0.698964
 30
0.0
 40
0.26473
210
0.0
220
0.0
230
1.0
100
AcDbArc
 50
316.857547
 51
333.106086
  0
ARC
  5
6D
100
AcDbEntity
  8
1
  6
SOLID
 62
     0
100
AcDbCircle
 10
-0.20177
 20
-0.807507
 30
0.0
 40
0.149632
210
0.0
220
0.0
230
1.0
100
AcDbArc
 50
310.270595
 51
331.026129
  0
ARC
  5
6E
100
AcDbEntity
  8
1
  6
SOLID
 62
     0
100
AcDbCircle
 10
-0.242787
 20
-0.850061
 30
0.0
 40
0.155244
210
0.0
220
0.0
230
1.0
100
AcDbArc
 50
310.275949
 51
332.528743
  0
LINE
  5
6F
100
AcDbEntity
  8
1
  6
SOLID
 62
     0
100
AcDbLine
 10
-0.142427
 20
-0.968503
 30
0.0
 11
-0.151876
 21
-0.985317
 31
0.0
  0
LINE
  5
70
100
AcDbEntity
  8
1
  6
SOLID
 62
     0
100
AcDbLine
 10
-0.151876
 20
-0.985317
 30
0.0
 11
-0.28138
 21
-1.113293
 31
0.0
  0
ARC
  5
71
100
AcDbEntity
  8
1
  6
SOLID
 62
     0
100
AcDbCircle
 10
-0.433721
 20
-0.994008
 30
0.0
 40
0.185563
210
0.0
220
0.0
230
1.0
100
AcDbArc
 50
279.671402
 51
312.508311
  0
ARC
  5
72
100
AcDbEntity
  8
1
  6
SOLID
 62
     0
100
AcDbCircle
 10
-0.442559
 20
-1.088722
 30
0.0
 40
0.096861
210
0.0
220
0.0
230
1.0
100
AcDbArc
 50
243.682206
 51
294.398557
  0
ARC
  5
73
100
AcDbEntity
  8
1
  6
SOLID
 62
     0
100
AcDbCircle
 10
-0.485094
 20
-1.108318
 30
0.0
 40
0.067227
210
0.0
220
0.0
230
1.0
100
AcDbArc
 50
220.125676
 51
269.652371
  0
LINE
  5
74
100
AcDbEntity
  8
1
  6
SOLID
 62
     0
100
AcDbLine
 10
-0.536498
 20
-1.151644
 30
0.0
 11
-0.585826
 21
-1.103149
 31
0.0
  0
LINE
  5
75
100
AcDbEntity
  8
1
  6
SOLID
 62
     0
100
AcDbLine
 10
-0.585826
 20
-1.103149
 30
0.0
 11
-0.626679
 21
-1.033672
 31
0.0
  0
LINE
  5
76
100
AcDbEntity
  8
1
  6
SOLID
 62
     0
100
AcDbLine
 10
-0.626679
 20
-1.033672
 30
0.0
 11
-0.628763
 21
-1.030199
 31
0.0
  0
ARC
  5
77
100
AcDbEntity
  8
1
  6
SOLID
 62
     0
100
AcDbCircle
 10
-0.573845
 20
-0.990454
 30
0.0
 40
0.06779
210
0.0
220
0.0
230
1.0
100
AcDbArc
 50
182.94117
 51
215.89351
  0
ARC
  5
78
100
AcDbEntity
  8
1
  6
SOLID
 62
     0
100
AcDbCircle
 10
-0.579536
 20
-0.944097
 30
0.0
 40
0.079554
210
0.0
220
0.0
230
1.0
100
AcDbArc
 50
186.987237
 51
218.787188
  0
ARC
  5
79
100
AcDbEntity
  8
1
  6
SOLID
 62
     0
100
AcDbCircle
 10
-0.270907
 20
-0.765463
 30
0.0
 40
0.430916
210
0.0
220
0.0
230
1.0
100
AcDbArc
 50
192.178482
 51
205.912773
  0
ARC
  5
7A
100
AcDbEntity
  8
1
  6
SOLID
 62
     0
100
AcDbCircle
 10
-0.730813
 20
-0.851117
 30
0.0
 40
0.039042
210
0.0
220
0.0
230
1.0
100
AcDbArc
 50
352.270422
 51
395.26204
  0
ARC
  5
7B
100
AcDbEntity
  8
1
  6
SOLID
 62
     0
100
AcDbCircle
 10
-0.664129
 20
-0.814979
 30
0.0
 40
0.037368
210
0.0
220
0.0
230
1.0
100
AcDbArc
 50
172.27837
 51
201.340699
  0
ARC
  5
7C
100
AcDbEntity
  8
1
  6
SOLID
 62
     0
100
AcDbCircle
 10
-0.764273
 20
-0.821088
 30
0.0
 40
0.064089
210
0.0
220
0.0
230
1.0
100
AcDbArc
 50
10.000677
 51
30.789515
  0
ARC
  5
7D
100
AcDbEntity
  8
1
  6
SOLID
 62
     0
100
AcDbCircle
 10
-0.753333
 20
-0.782965
 30
0.0
 40
0.044435
210
0.0
220
0.0
230
1.0
100
AcDbArc
 50
353.129277
 51
394.19971
  0
ARC
  5
7E
100
AcDbEntity
  8
1
  6
SOLID
 62
     0
100
AcDbCircle
 10
-0.614297
 20
-0.732777
 30
0.0
 40
0.105346
210
0.0
220
0.0
230
1.0
100
AcDbArc
 50
177.009192
 51
193.846929
  0
ARC
  5
7F
100
AcDbEntity
  8
1
  6
SOLID
 62
     0
100
AcDbCircle
 10
-0.651422
 20
-0.690591
 30
0.0
 40
0.077334
210
0.0
220
0.0
230
1.0
100
AcDbArc
 50
174.436478
 51
208.321876
  0
ARC
  5
80
100
AcDbEntity
  8
1
  6
SOLID
 62
     0
100
AcDbCircle
 10
-0.659482
 20
-0.645625
 30
0.0
 40
0.078438
210
0.0
220
0.0
230
1.0
100
AcDbArc
 50
173.556121
 51
208.533967
  0
ARC
  5
81
100
AcDbEntity
  8
1
  6
SOLID
 62
     0
100
AcDbCircle
 10
-0.765848
 20
-0.721425
 30
0.0
 40
0.06929
210
0.0
220
0.0
230
1.0
100
AcDbArc
 50
97.077636
 51
120.680649
  0
ARC
  5
82
100
AcDbEntity
  8
1
  6
SOLID
 62
     0
100
AcDbCircle
 10
-0.824639
 20
-0.589349
 30
0.0
 40
0.076179
210
0.0
220
0.0
230
1.0
100
AcDbArc
 50
240.454095
 51
287.916352
  0
ARC
  5
83
100
AcDbEntity
  8
1
  6
SOLID
 62
     0
100
AcDbCircle
 10
-0.350083
 20
0.148485
 30
0.0
 40
0.953305
210
0.0
220
0.0
230
1.0
100
AcDbArc
 50
231.492204
 51
237.506359
  0
ARC
  5
84
100
AcDbEntity
  8
1
  6
SOLID
 62
     0
100
AcDbCircle
 10
-0.872693
 20
-0.466841
 30
0.0
 40
0.148673
210
0.0
220
0.0
230
1.0
100
AcDbArc
 50
228.174289
 51
241.50131
  0
LINE
  5
85
100
AcDbEntity
  8
1
  6
SOLID
 62
     0
100
AcDbLine
 10
-0.971838
 20
-0.577628
 30
0.0
 11
-0.98087
 21
-0.578323
 31
0.0
  0
ARC
  5
86
100
AcDbEntity
  8
1
  6
SOLID
 62
     0
100
AcDbCircle
 10
-1.053984
 20
-0.493157
 30
0.0
 40
0.112244
210
0.0
220
0.0
230
1.0
100
AcDbArc
 50
277.481179
 51
310.645609
  0
ARC
  5
87
100
AcDbEntity
  8
1
  6
SOLID
 62
     0
100
AcDbCircle
 10
-1.054151
 20
-0.586186
 30
0.0
 40
0.023493
210
0.0
220
0.0
230
1.0
100
AcDbArc
 50
261.967305
 51
308.989616
  0
ARC
  5
88
100
AcDbEntity
  8
1
  6
SOLID
 62
     0
100
AcDbCircle
 10
-1.028458
 20
-0.407607
 30
0.0
 40
0.203911
210
0.0
220
0.0
230
1.0
100
AcDbArc
 50
211.997396
 51
261.830657
  0
ARC
  5
89
100
AcDbEntity
  8
1
  6
SOLID
 62
     0
100
AcDbCircle
 10
-1.22903
 20
-0.526081
 30
0.0
 40
0.029542
210
0.0
220
0.0
230
1.0
100
AcDbArc
 50
20.665089
 51
61.045205
  0
ARC
  5
8A
100
AcDbEntity
  8
1
  6
SOLID
 62
     0
100
AcDbCircle
 10
-1.205752
 20
-0.350973
 30
0.0
 40
0.149528
210
0.0
220
0.0
230
1.0
100
AcDbArc
 50
224.41875
 51
266.558378
  0
ARC
  5
8B
100
AcDbEntity
  8
1
  6
SOLID
 62
     0
100
AcDbCircle
 10
-1.193165
 20
-0.321402
 30
0.0
 40
0.179637
210
0.0
220
0.0
230
1.0
100
AcDbArc
 50
201.698536
 51
228.348551
  0
ARC
  5
8C
100
AcDbEntity
  8
1
  6
SOLID
 62
     0
100
AcDbCircle
 10
-1.417715
 20
-0.389781
 30
0.0
 40
0.057675
210
0.0
220
0.0
230
1.0
100
AcDbArc
 50
1.949734
 51
64.019276
  0
ARC
  5
8D
100
AcDbEntity
  8
1
  6
SOLID
 62
     0
100
AcDbCircle
 10
-1.377048
 20
-0.272409
 30
0.0
 40
0.067311
210
0.0
220
0.0
230
1.0
100
AcDbArc
 50
189.452994
 51
256.773312
  0
ARC
  5
8E
100
AcDbEntity
  8
1
  6
SOLID
 62
     0
100
AcDbCircle
 10
-1.359035
 20
-0.245237
 30
0.0
 40
0.092663
210
0.0
220
0.0
230
1.0
100
AcDbArc
 50
178.03316
 51
204.364779
  0
ARC
  5
8F
100
AcDbEntity
  8
1
  6
SOLID
 62
     0
100
AcDbCircle
 10
-1.329624
 20
-0.18606
 30
0.0
 40
0.134255
210
0.0
220
0.0
230
1.0
100
AcDbArc
 50
171.72757
 51
204.650977
  0
LINE
  5
90
100
AcDbEntity
  8
1
  6
SOLID
 62
     0
100
AcDbLine
 10
-1.462482
 20
-0.166744
 30
0.0
 11
-1.465122
 21
-0.160352
 31
0.0
  0
ARC
  5
91
100
AcDbEntity
  8
1
  6
SOLID
 62
     0
100
AcDbCircle
 10
-1.475214
 20
-0.214545
 30
0.0
 40
0.055125
210
0.0
220
0.0
230
1.0
100
AcDbArc
 50
79.451178
 51
105.103931
  0
ARC
  5
92
100
AcDbEntity
  8
1
  6
SOLID
 62
     0
100
AcDbCircle
 10
-1.603954
 20
-12.645498
 30
0.0
 40
12.484698
210
0.0
220
0.0
230
1.0
100
AcDbArc
 50
89.475089
 51
91.596282
  0
LINE
  5
93
100
AcDbEntity
  8
1
  6
SOLID
 62
     0
100
AcDbLine
 10
-1.951736
 20
-0.165632
 30
0.0
 11
-1.815562
 21
-0.171607
 31
0.0
  0
LINE
  5
94
100
AcDbEntity
  8
1
  6
SOLID
 62
     0
100
AcDbLine
 10
-1.815562
 20
-0.171607
 30
0.0
 11
-1.800138
 21
-0.174525
 31
0.0
  0
ARC
  5
95
100
AcDbEntity
  8
1
  6
SOLID
 62
     0
100
AcDbCircle
 10
-1.816178
 20
-0.251047
 30
0.0
 40
0.078185
210
0.0
220
0.0
230
1.0
100
AcDbArc
 50
11.970692
 51
78.161598
  0
ARC
  5
96
100
AcDbEntity
  8
1
  6
SOLID
 62
     0
100
AcDbCircle
 10
-1.79869
 20
-0.263794
 30
0.0
 40
0.065723
210
0.0
220
0.0
230
1.0
100
AcDbArc
 50
-30.00922
 51
26.14796
  0
ARC
  5
97
100
AcDbEntity
  8
1
  6
SOLID
 62
     0
100
AcDbCircle
 10
-1.807518
 20
-0.30031
 30
0.0
 40
0.065841
210
0.0
220
0.0
230
1.0
100
AcDbArc
 50
-30.538669
 51
3.174038
  0
ARC
  5
98
100
AcDbEntity
  8
1
  6
SOLID
 62
     0
100
AcDbCircle
 10
-1.803336
 20
-0.338104
 30
0.0
 40
0.052705
210
0.0
220
0.0
230
1.0
100
AcDbArc
 50
-33.576326
 51
4.722358
  0
ARC
  5
99
100
AcDbEntity
  8
1
  6
SOLID
 62
     0
100
AcDbCircle
 10
-1.817739
 20
-0.371522
 30
0.0
 40
0.05847
210
0.0
220
0.0
230
1.0
100
AcDbArc
 50
-32.047182
 51
4.186849
  0
ARC
  5
9A
100
AcDbEntity
  8
1
  6
SOLID
 62
     0
100
AcDbCircle
 10
-1.824271
 20
-0.406853
 30
0.0
 40
0.056257
210
0.0
220
0.0
230
1.0
100
AcDbArc
 50
-31.911015
 51
4.389722
  0
ARC
  5
9B
100
AcDbEntity
  8
1
  6
SOLID
 62
     0
100
AcDbCircle
 10
-1.848847
 20
-0.445331
 30
0.0
 40
0.072857
210
0.0
220
0.0
230
1.0
100
AcDbArc
 50
-30.117844
 51
6.890224
  0
ARC
  5
9C
100
AcDbEntity
  8
1
  6
SOLID
 62
     0
100
AcDbCircle
 10
-1.845125
 20
-0.485715
 30
0.0
 40
0.059423
210
0.0
220
0.0
230
1.0
100
AcDbArc
 50
-31.976205
 51
3.691357
  0
ARC
  5
9D
100
AcDbEntity
  8
1
  6
SOLID
 62
     0
100
AcDbCircle
 10
-1.853032
 20
-0.521453
 30
0.0
 40
0.058469
210
0.0
220
0.0
230
1.0
100
AcDbArc
 50
-32.047373
 51
4.187457
  0
ARC
  5
9E
100
AcDbEntity
  8
1
  6
SOLID
 62
     0
100
AcDbCircle
 10
-1.861296
 20
-0.556675
 30
0.0
 40
0.057975
210
0.0
220
0.0
230
1.0
100
AcDbArc
 50
-32.437024
 51
4.152279
  0
ARC
  5
9F
100
AcDbEntity
  8
1
  6
SOLID
 62
     0
100
AcDbCircle
 10
-1.870679
 20
-0.592041
 30
0.0
 40
0.058469
210
0.0
220
0.0
230
1.0
100
AcDbArc
 50
-32.047373
 51
4.187457
  0
ARC
  5
A0
100
AcDbEntity
  8
1
  6
SOLID
 62
     0
100
AcDbCircle
 10
-1.883736
 20
-0.626056
 30
0.0
 40
0.062687
210
0.0
220
0.0
230
1.0
100
AcDbArc
 50
-31.018748
 51
2.733947
  0
ARC
  5
A1
100
AcDbEntity
  8
1
  6
SOLID
 62
     0
100
AcDbCircle
 10
-1.879679
 20
-0.663452
 30
0.0
 40
0.049926
210
0.0
220
0.0
230
1.0
100
AcDbArc
 50
-35.248028
 51
5.853605
  0
ARC
  5
A2
100
AcDbEntity
  8
1
  6
SOLID
 62
     0
100
AcDbCircle
 10
-1.93587
 20
-0.656755
 30
0.0
 40
0.103262
210
0.0
220
0.0
230
1.0
100
AcDbArc
 50
299.223938
 51
339.886387
  0
LINE
  5
A3
100
AcDbEntity
  8
1
  6
SOLID
 62
     0
100
AcDbLine
 10
-1.885455
 20
-0.746873
 30
0.0
 11
-1.899767
 21
-0.752153
 31
0.0
  0
LINE
  5
A4
100
AcDbEntity
  8
1
  6
SOLID
 62
     0
100
AcDbLine
 10
-1.899767
 20
-0.752153
 30
0.0
 11
-3.083509
 21
-0.752153
 31
0.0
  0
ARC
  5
A5
100
AcDbEntity
  8
1
  6
SOLID
 62
     0
100
AcDbCircle
 10
-3.080112
 20
-0.666916
 30
0.0
 40
0.085305
210
0.0
220
0.0
230
1.0
100
AcDbArc
 50
203.157468
 51
267.717461
  0
ARC
  5
A6
100
AcDbEntity
  8
1
  6
SOLID
 62
     0
100
AcDbCircle
 10
-3.098485
 20
-0.663988
 30
0.0
 40
0.070268
210
0.0
220
0.0
230
1.0
100
AcDbArc
 50
175.633619
 51
211.271343
  0
ARC
  5
A7
100
AcDbEntity
  8
1
  6
SOLID
 62
     0
100
AcDbCircle
 10
-3.197839
 20
-0.637463
 30
0.0
 40
0.036142
210
0.0
220
0.0
230
1.0
100
AcDbArc
 50
324.135698
 51
367.647886
  0
ARC
  5
A8
100
AcDbEntity
  8
1
  6
SOLID
 62
     0
100
AcDbCircle
 10
-3.095191
 20
-0.642811
 30
0.0
 40
0.067594
210
0.0
220
0.0
230
1.0
100
AcDbArc
 50
150.153229
 51
171.35748
  0
ARC
  5
A9
100
AcDbEntity
  8
1
  6
SOLID
 62
     0
100
AcDbCircle
 10
-3.078185
 20
-0.600675
 30
0.0
 40
0.076111
210
0.0
220
0.0
230
1.0
100
AcDbArc
 50
147.181865
 51
186.408416
  0
LINE
  5
AA
100
AcDbEntity
  8
1
  6
SOLID
 62
     0
100
AcDbLine
 10
-3.142148
 20
-0.559425
 30
0.0
 11
-3.118526
 21
-0.465215
 31
0.0
  0
LINE
  5
AB
100
AcDbEntity
  8
1
  6
SOLID
 62
     0
100
AcDbLine
 10
-3.118526
 20
-0.465215
 30
0.0
 11
-3.117136
 21
-0.442427
 31
0.0
  0
LINE
  5
AC
100
AcDbEntity
  8
1
  6
SOLID
 62
     0
100
AcDbLine
 10
-3.117136
 20
-0.442427
 30
0.0
 11
-3.105881
 21
-0.415053
 31
0.0
  0
LINE
  5
AD
100
AcDbEntity
  8
1
  6
SOLID
 62
     0
100
AcDbLine
 10
-3.105881
 20
-0.415053
 30
0.0
 11
-3.073922
 21
-0.284993
 31
0.0
  0
LINE
  5
AE
100
AcDbEntity
  8
1
  6
SOLID
 62
     0
100
AcDbLine
 10
-3.073922
 20
-0.284993
 30
0.0
 11
-3.072949
 21
-0.2654
 31
0.0
  0
LINE
  5
AF
100
AcDbEntity
  8
1
  6
SOLID
 62
     0
100
AcDbLine
 10
-3.072949
 20
-0.2654
 30
0.0
 11
-3.065029
 21
-0.247614
 31
0.0
  0
ARC
  5
B0
100
AcDbEntity
  8
1
  6
SOLID
 62
     0
100
AcDbCircle
 10
-2.972966
 20
-0.280076
 30
0.0
 40
0.097618
210
0.0
220
0.0
230
1.0
100
AcDbArc
 50
111.50597
 51
160.577283
  0
ARC
  5
B1
100
AcDbEntity
  8
1
  6
SOLID
 62
     0
100
AcDbCircle
 10
-2.913292
 20
-2.608649
 30
0.0
 40
2.421278
210
0.0
220
0.0
230
1.0
100
AcDbArc
 50
89.020086
 51
92.259518
  0
ARC
  5
B2
100
AcDbEntity
  8
1
  6
SOLID
 62
     0
100
AcDbCircle
 10
-2.878286
 20
-0.045731
 30
0.0
 40
0.142139
210
0.0
220
0.0
230
1.0
100
AcDbArc
 50
272.581621
 51
288.706588
  0
LINE
  5
B3
100
AcDbEntity
  8
1
  6
SOLID
 62
     0
100
AcDbLine
 10
-2.832699
 20
-0.180361
 30
0.0
 11
-2.827697
 21
-0.176193
 31
0.0
  0
ARC
  5
B4
100
AcDbEntity
  8
1
  6
SOLID
 62
     0
100
AcDbCircle
 10
-2.914125
 20
-0.129864
 30
0.0
 40
0.098062
210
0.0
220
0.0
230
1.0
100
AcDbArc
 50
331.80712
 51
354.110813
  0
ARC
  5
B5
100
AcDbEntity
  8
1
  6
SOLID
 62
     0
100
AcDbCircle
 10
-2.84684
 20
-0.11706
 30
0.0
 40
0.037928
210
0.0
220
0.0
230
1.0
100
AcDbArc
 50
322.923913
 51
367.248521
  0
ARC
  5
B6
100
AcDbEntity
  8
1
  6
SOLID
 62
     0
100
AcDbCircle
 10
-2.713835
 20
-0.132116
 30
0.0
 40
0.097423
210
0.0
220
0.0
230
1.0
100
AcDbArc
 50
152.770845
 51
168.248364
  0
ARC
  5
B7
100
AcDbEntity
  8
1
  6
SOLID
 62
     0
100
AcDbCircle
 10
-2.74596
 20
-0.082656
 30
0.0
 40
0.05472
210
0.0
220
0.0
230
1.0
100
AcDbArc
 50
147.799314
 51
185.120707
  0
ARC
  5
B8
100
AcDbEntity
  8
1
  6
SOLID
 62
     0
100
AcDbCircle
 10
-2.72832
 20
-0.044133
 30
0.0
 40
0.064625
210
0.0
220
0.0
230
1.0
100
AcDbArc
 50
148.412323
 51
188.33091
  0
ARC
  5
B9
100
AcDbEntity
  8
1
  6
SOLID
 62
     0
100
AcDbCircle
 10
-2.718964
 20
-0.006476
 30
0.0
 40
0.064519
210
0.0
220
0.0
230
1.0
100
AcDbArc
 50
148.645082
 51
183.382451
  0
ARC
  5
BA
100
AcDbEntity
  8
1
  6
SOLID
 62
     0
100
AcDbCircle
 10
-2.686969
 20
0.025398
 30
0.0
 40
0.087109
210
0.0
220
0.0
230
1.0
100
AcDbArc
 50
153.653196
 51
178.883378
  0
ARC
  5
BB
100
AcDbEntity
  8
1
  6
SOLID
 62
     0
100
AcDbCircle
 10
-2.711915
 20
0.068367
 30
0.0
 40
0.053288
210
0.0
220
0.0
230
1.0
100
AcDbArc
 50
146.621584
 51
184.638564
  0
ARC
  5
BC
100
AcDbEntity
  8
1
  6
SOLID
 62
     0
100
AcDbCircle
 10
-2.70166
 20
0.10159
 30
0.0
 40
0.054893
210
0.0
220
0.0
230
1.0
100
AcDbArc
 50
147.734618
 51
184.080196
  0
ARC
  5
BD
100
AcDbEntity
  8
1
  6
SOLID
 62
     0
100
AcDbCircle
 10
-2.681694
 20
0.134209
 30
0.0
 40
0.066465
210
0.0
220
0.0
230
1.0
100
AcDbArc
 50
149.169095
 51
182.858685
  0
ARC
  5
BE
100
AcDbEntity
  8
1
  6
SOLID
 62
     0
100
AcDbCircle
 10
-2.687364
 20
0.17302
 30
0.0
 40
0.051621
210
0.0
220
0.0
230
1.0
100
AcDbArc
 50
146.538283
 51
185.276586
  0
ARC
  5
BF
100
AcDbEntity
  8
1
  6
SOLID
 62
     0
100
AcDbCircle
 10
-2.668541
 20
0.205487
 30
0.0
 40
0.062018
210
0.0
220
0.0
230
1.0
100
AcDbArc
 50
148.954668
 51
183.702528
  0
ARC
  5
C0
100
AcDbEntity
  8
1
  6
SOLID
 62
     0
100
AcDbCircle
 10
-2.636464
 20
0.244655
 30
0.0
 40
0.085514
210
0.0
220
0.0
230
1.0
100
AcDbArc
 50
152.171045
 51
184.819386
  0
ARC
  5
C1
100
AcDbEntity
  8
1
  6
SOLID
 62
     0
100
AcDbCircle
 10
-2.658974
 20
0.288885
 30
0.0
 40
0.053288
210
0.0
220
0.0
230
1.0
100
AcDbArc
 50
146.621584
 51
184.638564
  0
ARC
  5
C2
100
AcDbEntity
  8
1
  6
SOLID
 62
     0
100
AcDbCircle
 10
-2.644506
 20
0.32231
 30
0.0
 40
0.05911
210
0.0
220
0.0
230
1.0
100
AcDbArc
 50
148.155672
 51
183.984123
  0
ARC
  5
C3
100
AcDbEntity
  8
1
  6
SOLID
 62
     0
100
AcDbCircle
 10
-2.636777
 20
0.357687
 30
0.0
 40
0.058093
210
0.0
220
0.0
230
1.0
100
AcDbArc
 50
148.113516
 51
184.136545
  0
ARC
  5
C4
100
AcDbEntity
  8
1
  6
SOLID
 62
     0
100
AcDbCircle
 10
-2.701128
 20
0.39218
 30
0.0
 40
0.015499
210
0.0
220
0.0
230
1.0
100
AcDbArc
 50
345.785594
 51
405.53835
  0
ARC
  5
C5
100
AcDbEntity
  8
1
  6
SOLID
 62
     0
100
AcDbCircle
 10
-2.737043
 20
0.968096
 30
0.0
 40
0.566787
210
0.0
220
0.0
230
1.0
100
AcDbArc
 50
261.69183
 51
274.733458
  0
ARC
  5
C6
100
AcDbEntity
  8
1
  6
SOLID
 62
     0
100
AcDbCircle
 10
-2.778772
 20
0.511665
 30
0.0
 40
0.111855
210
0.0
220
0.0
230
1.0
100
AcDbArc
 50
207.948705
 51
248.953046
  0
ARC
  5
C7
100
AcDbEntity
  8
1
  6
SOLID
 62
     0
100
AcDbCircle
 10
-2.814767
 20
0.560703
 30
0.0
 40
0.056449
210
0.0
220
0.0
230
1.0
100
AcDbArc
 50
148.409755
 51
184.40366
  0
ARC
  5
C8
100
AcDbEntity
  8
1
  6
SOLID
 62
     0
100
AcDbCircle
 10
-2.788374
 20
0.598487
 30
0.0
 40
0.074929
210
0.0
220
0.0
230
1.0
100
AcDbArc
 50
150.212092
 51
186.293287
  0
ARC
  5
C9
100
AcDbEntity
  8
1
  6
SOLID
 62
     0
100
AcDbCircle
 10
-2.794436
 20
0.639818
 30
0.0
 40
0.059109
210
0.0
220
0.0
230
1.0
100
AcDbArc
 50
148.155617
 51
183.984369
  0
ARC
  5
CA
100
AcDbEntity
  8
1
  6
SOLID
 62
     0
100
AcDbCircle
 10
-2.786826
 20
0.675203
 30
0.0
 40
0.057975
210
0.0
220
0.0
230
1.0
100
AcDbArc
 50
147.562948
 51
184.152282
  0
ARC
  5
CB
100
AcDbEntity
  8
1
  6
SOLID
 62
     0
100
AcDbCircle
 10
-2.776791
 20
0.710407
 30
0.0
 40
0.059108
210
0.0
220
0.0
230
1.0
100
AcDbArc
 50
148.155221
 51
183.984765
  0
ARC
  5
CC
100
AcDbEntity
  8
1
  6
SOLID
 62
     0
100
AcDbCircle
 10
-2.771574
 20
0.745941
 30
0.0
 40
0.055598
210
0.0
220
0.0
230
1.0
100
AcDbArc
 50
147.885142
 51
184.484885
  0
ARC
  5
CD
100
AcDbEntity
  8
1
  6
SOLID
 62
     0
100
AcDbCircle
 10
-2.742361
 20
0.783536
 30
0.0
 40
0.076726
210
0.0
220
0.0
230
1.0
100
AcDbArc
 50
150.827683
 51
186.013795
  0
ARC
  5
CE
100
AcDbEntity
  8
1
  6
SOLID
 62
     0
100
AcDbCircle
 10
-2.736773
 20
0.821415
 30
0.0
 40
0.072584
210
0.0
220
0.0
230
1.0
100
AcDbArc
 50
151.337133
 51
180.378452
  0
ARC
  5
CF
100
AcDbEntity
  8
1
  6
SOLID
 62
     0
100
AcDbCircle
 10
-2.745959
 20
0.861113
 30
0.0
 40
0.054721
210
0.0
220
0.0
230
1.0
100
AcDbArc
 50
147.799737
 51
185.120366
  0
ARC
  5
D0
100
AcDbEntity
  8
1
  6
SOLID
 62
     0
100
AcDbCircle
 10
-2.72832
 20
0.899637
 30
0.0
 40
0.064625
210
0.0
220
0.0
230
1.0
100
AcDbArc
 50
148.412323
 51
188.330691
  0
ARC
  5
D1
100
AcDbEntity
  8
1
  6
SOLID
 62
     0
100
AcDbCircle
 10
-2.714264
 20
0.935802
 30
0.0
 40
0.069145
210
0.0
220
0.0
230
1.0
100
AcDbArc
 50
103.757165
 51
181.918469
  0
ARC
  5
D2
100
AcDbEntity
  8
1
  6
SOLID
 62
     0
100
AcDbCircle
 10
-0.370563
 20
0.727427
 30
0.0
 40
0.123098
210
0.0
220
0.0
230
1.0
100
AcDbArc
 50
42.627064
 51
64.253666
  0
ARC
  5
D3
100
AcDbEntity
  8
1
  6
SOLID
 62
     0
100
AcDbCircle
 10
-0.322962
 20
0.712414
 30
0.0
 40
0.107353
210
0.0
220
0.0
230
1.0
100
AcDbArc
 50
48.764576
 51
66.404124
  0
ARC
  5
D4
100
AcDbEntity
  8
1
  6
SOLID
 62
     0
100
AcDbCircle
 10
-0.185551
 20
1.833712
 30
0.0
 40
1.042699
210
0.0
220
0.0
230
1.0
100
AcDbArc
 50
266.335167
 51
273.417728
  0
ARC
  5
D5
100
AcDbEntity
  8
1
  6
SOLID
 62
     0
100
AcDbCircle
 10
-0.128303
 20
0.851704
 30
0.0
 40
0.059042
210
0.0
220
0.0
230
1.0
100
AcDbArc
 50
274.773155
 51
299.055362
  0
LINE
  5
D6
100
AcDbEntity
  8
1
  6
SOLID
 62
     0
100
AcDbLine
 10
-0.099629
 20
0.800093
 30
0.0
 11
0.094766
 21
0.798564
 31
0.0
  0
LINE
  5
D7
100
AcDbEntity
  8
1
  6
SOLID
 62
     0
100
AcDbLine
 10
0.094766
 20
0.798564
 30
0.0
 11
0.145484
 21
0.791616
 31
0.0
  0
ARC
  5
D8
100
AcDbEntity
  8
1
  6
SOLID
 62
     0
100
AcDbCircle
 10
0.188678
 20
1.30401
 30
0.0
 40
0.514211
210
0.0
220
0.0
230
1.0
100
AcDbArc
 50
265.181493
 51
278.439994
  0
ARC
  5
D9
100
AcDbEntity
  8
1
  6
SOLID
 62
     0
100
AcDbCircle
 10
0.379004
 20
0.648768
 30
0.0
 40
0.186234
210
0.0
220
0.0
230
1.0
100
AcDbArc
 50
109.41738
 51
128.076975
  0
LINE
  5
DA
100
AcDbEntity
  8
1
  6
SOLID
 62
     0
100
AcDbLine
 10
0.317091
 20
0.824409
 30
0.0
 11
0.403242
 21
0.87346
 31
0.0
  0
LINE
  5
DB
100
AcDbEntity
  8
1
  6
SOLID
 62
     0
100
AcDbLine
 10
0.403242
 20
0.87346
 30
0.0
 11
0.570264
 21
0.947938
 31
0.0
  0
LINE
  5
DC
100
AcDbEntity
  8
1
  6
SOLID
 62
     0
100
AcDbLine
 10
0.570264
 20
0.947938
 30
0.0
 11
0.605975
 21
0.958777
 31
0.0
  0
LINE
  5
DD
100
AcDbEntity
  8
1
  6
SOLID
 62
     0
100
AcDbLine
 10
0.605975
 20
0.958777
 30
0.0
 11
0.617091
 21
0.958916
 31
0.0
  0
LINE
  5
DE
100
AcDbEntity
  8
1
  6
SOLID
 62
     0
100
AcDbLine
 10
0.617091
 20
0.958916
 30
0.0
 11
0.623205
 21
0.960306
 31
0.0
  0
ARC
  5
DF
100
AcDbEntity
  8
1
  6
SOLID
 62
     0
100
AcDbCircle
 10
0.647425
 20
0.925831
 30
0.0
 40
0.042132
210
0.0
220
0.0
230
1.0
100
AcDbArc
 50
83.238645
 51
125.089983
  0
ARC
  5
E0
100
AcDbEntity
  8
1
  6
SOLID
 62
     0
100
AcDbCircle
 10
0.692704
 20
0.89382
 30
0.0
 40
0.084139
210
0.0
220
0.0
230
1.0
100
AcDbArc
 50
89.258582
 51
118.632777
  0
ARC
  5
E1
100
AcDbEntity
  8
1
  6
SOLID
 62
     0
100
AcDbCircle
 10
0.722849
 20
0.931613
 30
0.0
 40
0.054696
210
0.0
220
0.0
230
1.0
100
AcDbArc
 50
85.644784
 51
122.088935
  0
ARC
  5
E2
100
AcDbEntity
  8
1
  6
SOLID
 62
     0
100
AcDbCircle
 10
0.761754
 20
0.927337
 30
0.0
 40
0.068313
210
0.0
220
0.0
230
1.0
100
AcDbArc
 50
87.795665
 51
120.577578
  0
ARC
  5
E3
100
AcDbEntity
  8
1
  6
SOLID
 62
     0
100
AcDbCircle
 10
0.802577
 20
0.911299
 30
0.0
 40
0.09255
210
0.0
220
0.0
230
1.0
100
AcDbArc
 50
88.096849
 51
114.374646
  0
ARC
  5
E4
100
AcDbEntity
  8
1
  6
SOLID
 62
     0
100
AcDbCircle
 10
0.851977
 20
0.908499
 30
0.0
 40
0.105962
210
0.0
220
0.0
230
1.0
100
AcDbArc
 50
85.140033
 51
115.925235
  0
ARC
  5
E5
100
AcDbEntity
  8
1
  6
SOLID
 62
     0
100
AcDbCircle
 10
0.911564
 20
0.890161
 30
0.0
 40
0.133856
210
0.0
220
0.0
230
1.0
100
AcDbArc
 50
82.377863
 51
112.21591
  0
ARC
  5
E6
100
AcDbEntity
  8
1
  6
SOLID
 62
     0
100
AcDbCircle
 10
0.96022
 20
0.95875
 30
0.0
 40
0.071145
210
0.0
220
0.0
230
1.0
100
AcDbArc
 50
83.988982
 51
115.742787
  0
ARC
  5
E7
100
AcDbEntity
  8
1
  6
SOLID
 62
     0
100
AcDbCircle
 10
0.962324
 20
1.085922
 30
0.0
 40
0.056671
210
0.0
220
0.0
230
1.0
100
AcDbArc
 50
275.41268
 51
302.223751
  0
LINE
  5
E8
100
AcDbEntity
  8
1
  6
SOLID
 62
     0
100
AcDbLine
 10
0.992543
 20
1.03798
 30
0.0
 11
0.996711
 21
1.038258
 31
0.0
  0
ARC
  5
E9
100
AcDbEntity
  8
1
  6
SOLID
 62
     0
100
AcDbCircle
 10
1.086471
 20
0.921688
 30
0.0
 40
0.094423
210
0.0
220
0.0
230
1.0
100
AcDbArc
 50
175.026015
 51
213.60359
  0
ARC
  5
EA
100
AcDbEntity
  8
1
  6
SOLID
 62
     0
100
AcDbCircle
 10
0.878022
 20
0.841392
 30
0.0
 40
0.132799
210
0.0
220
0.0
230
1.0
100
AcDbArc
 50
-1.931895
 51
12.188466
  0
ARC
  5
EB
100
AcDbEntity
  8
1
  6
SOLID
 62
     0
100
AcDbCircle
 10
0.927502
 20
0.794855
 30
0.0
 40
0.093266
210
0.0
220
0.0
230
1.0
100
AcDbArc
 50
-6.356493
 51
26.805772
  0
LINE
  5
EC
100
AcDbEntity
  8
1
  6
SOLID
 62
     0
100
AcDbLine
 10
1.020194
 20
0.784529
 30
0.0
 11
1.027698
 21
0.763131
 31
0.0
  0
ARC
  5
ED
100
AcDbEntity
  8
1
  6
SOLID
 62
     0
100
AcDbCircle
 10
0.579516
 20
0.723877
 30
0.0
 40
0.449897
210
0.0
220
0.0
230
1.0
100
AcDbArc
 50
-8.230395
 51
5.005468
  0
ARC
  5
EE
100
AcDbEntity
  8
1
  6
SOLID
 62
     0
100
AcDbCircle
 10
1.048984
 20
0.640922
 30
0.0
 40
0.030495
210
0.0
220
0.0
230
1.0
100
AcDbArc
 50
142.533235
 51
188.252509
  0
ARC
  5
EF
100
AcDbEntity
  8
1
  6
SOLID
 62
     0
100
AcDbCircle
 10
0.959224
 20
0.64343
 30
0.0
 40
0.059977
210
0.0
220
0.0
230
1.0
100
AcDbArc
 50
328.184323
 51
353.407785
  0
ARC
  5
F0
100
AcDbEntity
  8
1
  6
SOLID
 62
     0
100
AcDbCircle
 10
0.925526
 20
0.612998
 30
0.0
 40
0.084672
210
0.0
220
0.0
230
1.0
100
AcDbArc
 50
328.813766
 51
359.196916
  0
ARC
  5
F1
100
AcDbEntity
  8
1
  6
SOLID
 62
     0
100
AcDbCircle
 10
0.879316
 20
0.592825
 30
0.0
 40
0.120985
210
0.0
220
0.0
230
1.0
100
AcDbArc
 50
326.357548
 51
348.716182
  0
LINE
  5
F2
100
AcDbEntity
  8
1
  6
SOLID
 62
     0
100
AcDbLine
 10
0.980037
 20
0.525799
 30
0.0
 11
0.976563
 21
0.522325
 31
0.0
  0
LINE
  5
F3
100
AcDbEntity
  8
1
  6
SOLID
 62
     0
100
AcDbLine
 10
0.976563
 20
0.522325
 30
0.0
 11
1.178184
 21
0.515238
 31
0.0
  0
ARC
  5
F4
100
AcDbEntity
  8
1
  6
SOLID
 62
     0
100
AcDbCircle
 10
1.183261
 20
0.485685
 30
0.0
 40
0.029986
210
0.0
220
0.0
230
1.0
100
AcDbArc
 50
20.247672
 51
99.747803
  0
ARC
  5
F5
100
AcDbEntity
  8
1
  6
SOLID
 62
     0
100
AcDbCircle
 10
1.316945
 20
0.549435
 30
0.0
 40
0.118278
210
0.0
220
0.0
230
1.0
100
AcDbArc
 50
206.823647
 51
232.037464
  0
ARC
  5
F6
100
AcDbEntity
  8
1
  6
SOLID
 62
     0
100
AcDbCircle
 10
1.367681
 20
0.521314
 30
0.0
 40
0.139617
210
0.0
220
0.0
230
1.0
100
AcDbArc
 50
207.806839
 51
229.559991
  0
ARC
  5
F7
100
AcDbEntity
  8
1
  6
SOLID
 62
     0
100
AcDbCircle
 10
1.407786
 20
0.481012
 30
0.0
 40
0.146371
210
0.0
220
0.0
230
1.0
100
AcDbArc
 50
206.783759
 51
226.704671
  0
ARC
  5
F8
100
AcDbEntity
  8
1
  6
SOLID
 62
     0
100
AcDbCircle
 10
1.423987
 20
0.431722
 30
0.0
 40
0.129873
210
0.0
220
0.0
230
1.0
100
AcDbArc
 50
206.152895
 51
231.25437
  0
ARC
  5
F9
100
AcDbEntity
  8
1
  6
SOLID
 62
     0
100
AcDbCircle
 10
1.449469
 20
0.382081
 30
0.0
 40
0.118602
210
0.0
220
0.0
230
1.0
100
AcDbArc
 50
205.816426
 51
232.011906
  0
ARC
  5
FA
100
AcDbEntity
  8
1
  6
SOLID
 62
     0
100
AcDbCircle
 10
1.478928
 20
0.337991
 30
0.0
 40
0.113739
210
0.0
220
0.0
230
1.0
100
AcDbArc
 50
205.734245
 51
228.221561
  0
ARC
  5
FB
100
AcDbEntity
  8
1
  6
SOLID
 62
     0
100
AcDbCircle
 10
1.52796
 20
0.31418
 30
0.0
 40
0.138923
210
0.0
220
0.0
230
1.0
100
AcDbArc
 50
206.049322
 51
230.553455
  0
ARC
  5
FC
100
AcDbEntity
  8
1
  6
SOLID
 62
     0
100
AcDbCircle
 10
1.560698
 20
0.266668
 30
0.0
 40
0.13496
210
0.0
220
0.0
230
1.0
100
AcDbArc
 50
206.285674
 51
231.785485
  0
ARC
  5
FD
100
AcDbEntity
  8
1
  6
SOLID
 62
     0
100
AcDbCircle
 10
1.456702
 20
0.141189
 30
0.0
 40
0.028259
210
0.0
220
0.0
230
1.0
100
AcDbArc
 50
-69.988423
 51
43.467775
  0
ARC
  5
FE
100
AcDbEntity
  8
1
  6
SOLID
 62
     0
100
AcDbCircle
 10
1.687092
 20
-0.301135
 30
0.0
 40
0.470726
210
0.0
220
0.0
230
1.0
100
AcDbArc
 50
117.962326
 51
127.205658
  0
LINE
  5
FF
100
AcDbEntity
  8
1
  6
SOLID
 62
     0
100
AcDbLine
 10
1.402454
 20
0.073784
 30
0.0
 11
1.399536
 21
0.072117
 31
0.0
  0
LINE
  5
100
100
AcDbEntity
  8
1
  6
SOLID
 62
     0
100
AcDbLine
 10
1.399536
 20
0.072117
 30
0.0
 11
1.038953
 21
-0.169384
 31
0.0
  0
ARC
  5
101
100
AcDbEntity
  8
1
  6
SOLID
 62
     0
100
AcDbCircle
 10
1.77025
 20
-1.381037
 30
0.0
 40
1.415238
210
0.0
220
0.0
230
1.0
100
AcDbArc
 50
121.113188
 51
126.266821
  0
ARC
  5
102
100
AcDbEntity
  8
1
  6
SOLID
 62
     0
100
AcDbCircle
 10
1.240349
 20
-0.764145
 30
0.0
 40
0.6076
210
0.0
220
0.0
230
1.0
100
AcDbArc
 50
120.379502
 51
126.669761
  0
ARC
  5
103
100
AcDbEntity
  8
1
  6
SOLID
 62
     0
100
AcDbCircle
 10
1.166626
 20
-0.781231
 30
0.0
 40
0.581426
210
0.0
220
0.0
230
1.0
100
AcDbArc
 50
119.82082
 51
127.079409
  0
ARC
  5
104
100
AcDbEntity
  8
1
  6
SOLID
 62
     0
100
AcDbCircle
 10
0.872125
 20
-0.383559
 30
0.0
 40
0.086736
210
0.0
220
0.0
230
1.0
100
AcDbArc
 50
130.259508
 51
156.954902
  0
ARC
  5
105
100
AcDbEntity
  8
1
  6
SOLID
 62
     0
100
AcDbCircle
 10
0.598899
 20
-0.236178
 30
0.0
 40
0.224219
210
0.0
220
0.0
230
1.0
100
AcDbArc
 50
307.841151
 51
329.610067
  0
ARC
  5
106
100
AcDbEntity
  8
1
  6
SOLID
 62
     0
100
AcDbCircle
 10
0.933277
 20
-0.795911
 30
0.0
 40
0.430316
210
0.0
220
0.0
230
1.0
100
AcDbArc
 50
117.21916
 51
124.509195
  0
LINE
  5
107
100
AcDbEntity
  8
1
  6
SOLID
 62
     0
100
AcDbLine
 10
0.689486
 20
-0.441315
 30
0.0
 11
0.687401
 21
-0.441593
 31
0.0
  0
ARC
  5
108
100
AcDbEntity
  8
1
  6
SOLID
 62
     0
100
AcDbCircle
 10
0.708398
 20
-0.416011
 30
0.0
 40
0.033096
210
0.0
220
0.0
230
1.0
100
AcDbArc
 50
195.863942
 51
230.622184
  0
ARC
  5
109
100
AcDbEntity
  8
1
  6
SOLID
 62
     0
100
AcDbCircle
 10
0.672185
 20
-0.43928
 30
0.0
 40
0.014881
210
0.0
220
0.0
230
1.0
100
AcDbArc
 50
72.88947
 51
173.906691
  0
ARC
  5
10A
100
AcDbEntity
  8
1
  6
SOLID
 62
     0
100
AcDbCircle
 10
0.601181
 20
-0.442102
 30
0.0
 40
0.056378
210
0.0
220
0.0
230
1.0
100
AcDbArc
 50
-31.889105
 51
4.475403
  0
ARC
  5
10B
100
AcDbEntity
  8
1
  6
SOLID
 62
     0
100
AcDbCircle
 10
0.576718
 20
-0.480625
 30
0.0
 40
0.072858
210
0.0
220
0.0
230
1.0
100
AcDbArc
 50
-30.117736
 51
6.889684
  0
ARC
  5
10C
100
AcDbEntity
  8
1
  6
SOLID
 62
     0
100
AcDbCircle
 10
0.582449
 20
-0.521516
 30
0.0
 40
0.057455
210
0.0
220
0.0
230
1.0
100
AcDbArc
 50
-32.608298
 51
4.324045
  0
ARC
  5
10D
100
AcDbEntity
  8
1
  6
SOLID
 62
     0
100
AcDbCircle
 10
0.561282
 20
-0.553956
 30
0.0
 40
0.069581
210
0.0
220
0.0
230
1.0
100
AcDbArc
 50
-29.077497
 51
1.21724
  0
ARC
  5
10E
100
AcDbEntity
  8
1
  6
SOLID
 62
     0
100
AcDbCircle
 10
0.574823
 20
-0.592549
 30
0.0
 40
0.047512
210
0.0
220
0.0
230
1.0
100
AcDbArc
 50
-33.480047
 51
5.770407
  0
ARC
  5
10F
100
AcDbEntity
  8
1
  6
SOLID
 62
     0
100
AcDbCircle
 10
0.650414
 20
-0.629277
 30
0.0
 40
0.03747
210
0.0
220
0.0
230
1.0
100
AcDbArc
 50
163.696671
 51
207.210533
  0
LINE
  5
110
100
AcDbEntity
  8
1
  6
SOLID
 62
     0
100
AcDbLine
 10
0.617091
 20
-0.64641
 30
0.0
 11
1.397174
 21
-0.64641
 31
0.0
  0
LINE
  5
111
100
AcDbEntity
  8
1
  6
SOLID
 62
     0
100
AcDbLine
 10
1.397174
 20
-0.64641
 30
0.0
 11
1.574617
 21
-0.643214
 31
0.0
  0
LINE
  5
112
100
AcDbEntity
  8
1
  6
SOLID
 62
     0
100
AcDbLine
 10
1.574617
 20
-0.643214
 30
0.0
 11
1.637702
 21
-0.640713
 31
0.0
  0
LINE
  5
113
100
AcDbEntity
  8
1
  6
SOLID
 62
     0
100
AcDbLine
 10
1.637702
 20
-0.640713
 30
0.0
 11
1.659518
 21
-0.637517
 31
0.0
  0
LINE
  5
114
100
AcDbEntity
  8
1
  6
SOLID
 62
     0
100
AcDbLine
 10
1.659518
 20
-0.637517
 30
0.0
 11
1.669383
 21
-0.605836
 31
0.0
  0
ARC
  5
115
100
AcDbEntity
  8
1
  6
SOLID
 62
     0
100
AcDbCircle
 10
1.534229
 20
-0.54999
 30
0.0
 40
0.146237
210
0.0
220
0.0
230
1.0
100
AcDbArc
 50
337.549588
 51
362.183461
  0
ARC
  5
116
100
AcDbEntity
  8
1
  6
SOLID
 62
     0
100
AcDbCircle
 10
1.740497
 20
-0.551677
 30
0.0
 40
0.060573
210
0.0
220
0.0
230
1.0
100
AcDbArc
 50
148.273302
 51
173.117469
  0
ARC
  5
117
100
AcDbEntity
  8
1
  6
SOLID
 62
     0
100
AcDbCircle
 10
1.746267
 20
-0.515492
 30
0.0
 40
0.057455
210
0.0
220
0.0
230
1.0
100
AcDbArc
 50
147.39162
 51
184.324048
  0
ARC
  5
118
100
AcDbEntity
  8
1
  6
SOLID
 62
     0
100
AcDbCircle
 10
1.763956
 20
-0.480914
 30
0.0
 40
0.066186
210
0.0
220
0.0
230
1.0
100
AcDbArc
 50
150.024986
 51
183.131442
  0
ARC
  5
119
100
AcDbEntity
  8
1
  6
SOLID
 62
     0
100
AcDbCircle
 10
1.774437
 20
-0.439615
 30
0.0
 40
0.068312
210
0.0
220
0.0
230
1.0
100
AcDbArc
 50
149.601555
 51
186.920271
  0
ARC
  5
11A
100
AcDbEntity
  8
1
  6
SOLID
 62
     0
100
AcDbCircle
 10
1.771719
 20
-0.400256
 30
0.0
 40
0.056407
210
0.0
220
0.0
230
1.0
100
AcDbArc
 50
147.266095
 51
184.873946
  0
ARC
  5
11B
100
AcDbEntity
  8
1
  6
SOLID
 62
     0
100
AcDbCircle
 10
1.779023
 20
-0.365848
 30
0.0
 40
0.054893
210
0.0
220
0.0
230
1.0
100
AcDbArc
 50
147.735124
 51
184.080729
  0
ARC
  5
11C
100
AcDbEntity
  8
1
  6
SOLID
 62
     0
100
AcDbCircle
 10
1.796288
 20
-0.332682
 30
0.0
 40
0.063798
210
0.0
220
0.0
230
1.0
100
AcDbArc
 50
148.455722
 51
183.471244
  0
ARC
  5
11D
100
AcDbEntity
  8
1
  6
SOLID
 62
     0
100
AcDbCircle
 10
1.802875
 20
-0.296957
 30
0.0
 40
0.061003
210
0.0
220
0.0
230
1.0
100
AcDbArc
 50
149.608385
 51
182.205746
  0
ARC
  5
11E
100
AcDbEntity
  8
1
  6
SOLID
 62
     0
100
AcDbCircle
 10
1.821462
 20
-0.262652
 30
0.0
 40
0.071291
210
0.0
220
0.0
230
1.0
100
AcDbArc
 50
158.837883
 51
182.768445
  0
ARC
  5
11F
100
AcDbEntity
  8
1
  6
SOLID
 62
     0
100
AcDbCircle
 10
1.741335
 20
-0.244069
 30
0.0
 40
0.015406
210
0.0
220
0.0
230
1.0
100
AcDbArc
 50
27.668931
 51
75.805082
  0
ARC
  5
120
100
AcDbEntity
  8
1
  6
SOLID
 62
     0
100
AcDbCircle
 10
1.751297
 20
-0.226702
 30
0.0
 40
0.006645
210
0.0
220
0.0
230
1.0
100
AcDbArc
 50
111.476166
 51
201.45897
  0
LINE
  5
121
100
AcDbEntity
  8
1
  6
SOLID
 62
     0
100
AcDbLine
 10
1.748865
 20
-0.220519
 30
0.0
 11
1.804724
 21
-0.183279
 31
0.0
  0
LINE
  5
122
100
AcDbEntity
  8
1
  6
SOLID
 62
     0
100
AcDbLine
 10
1.804724
 20
-0.183279
 30
0.0
 11
1.817091
 21
-0.178832
 31
0.0
  0
LINE
  5
123
100
AcDbEntity
  8
1
  6
SOLID
 62
     0
100
AcDbLine
 10
1.817091
 20
-0.178832
 30
0.0
 11
1.828207
 21
-0.182029
 31
0.0
  0
ARC
  5
124
100
AcDbEntity
  8
1
  6
SOLID
 62
     0
100
AcDbCircle
 10
1.761858
 20
-0.293055
 30
0.0
 40
0.129341
210
0.0
220
0.0
230
1.0
100
AcDbArc
 50
30.685516
 51
59.1378
  0
LINE
  5
125
100
AcDbEntity
  8
1
  6
SOLID
 62
     0
100
AcDbLine
 10
1.873089
 20
-0.227049
 30
0.0
 11
1.873089
 21
-0.228717
 31
0.0
  0
LINE
  5
126
100
AcDbEntity
  8
1
  6
SOLID
 62
     0
100
AcDbLine
 10
1.873089
 20
-0.228717
 30
0.0
 11
1.859332
 21
-0.241639
 31
0.0
  0
ARC
  5
127
100
AcDbEntity
  8
1
  6
SOLID
 62
     0
100
AcDbCircle
 10
1.9662
 20
-0.292624
 30
0.0
 40
0.118407
210
0.0
220
0.0
230
1.0
100
AcDbArc
 50
154.495245
 51
182.831088
  0
ARC
  5
128
100
AcDbEntity
  8
1
  6
SOLID
 62
     0
100
AcDbCircle
 10
1.776588
 20
-0.289136
 30
0.0
 40
0.071958
210
0.0
220
0.0
230
1.0
100
AcDbArc
 50
330.22308
 51
352.545979
  0
ARC
  5
129
100
AcDbEntity
  8
1
  6
SOLID
 62
     0
100
AcDbCircle
 10
1.788157
 20
-0.327197
 30
0.0
 40
0.050941
210
0.0
220
0.0
230
1.0
100
AcDbArc
 50
-29.453678
 51
2.615764
  0
ARC
  5
12A
100
AcDbEntity
  8
1
  6
SOLID
 62
     0
100
AcDbCircle
 10
1.595717
 20
-0.32949
 30
0.0
 40
0.237888
210
0.0
220
0.0
230
1.0
100
AcDbArc
 50
348.587137
 51
354.510806
  0
ARC
  5
12B
100
AcDbEntity
  8
1
  6
SOLID
 62
     0
100
AcDbCircle
 10
1.87298
 20
-0.405003
 30
0.0
 40
0.052457
210
0.0
220
0.0
230
1.0
100
AcDbArc
 50
147.16887
 51
184.760275
  0
ARC
  5
12C
100
AcDbEntity
  8
1
  6
SOLID
 62
     0
100
AcDbCircle
 10
1.855425
 20
-0.43479
 30
0.0
 40
0.043041
210
0.0
220
0.0
230
1.0
100
AcDbArc
 50
143.776315
 51
186.294827
  0
ARC
  5
12D
100
AcDbEntity
  8
1
  6
SOLID
 62
     0
100
AcDbCircle
 10
1.753077
 20
-0.432628
 30
0.0
 40
0.059963
210
0.0
220
0.0
230
1.0
100
AcDbArc
 50
328.181236
 51
353.410544
  0
ARC
  5
12E
100
AcDbEntity
  8
1
  6
SOLID
 62
     0
100
AcDbCircle
 10
1.740094
 20
-0.468163
 30
0.0
 40
0.064055
210
0.0
220
0.0
230
1.0
100
AcDbArc
 50
-30.762616
 51
3.509057
  0
ARC
  5
12F
100
AcDbEntity
  8
1
  6
SOLID
 62
     0
100
AcDbCircle
 10
1.725724
 20
-0.509022
 30
0.0
 40
0.069883
210
0.0
220
0.0
230
1.0
100
AcDbArc
 50
-29.773138
 51
6.653135
  0
ARC
  5
130
100
AcDbEntity
  8
1
  6
SOLID
 62
     0
100
AcDbCircle
 10
1.729202
 20
-0.547961
 30
0.0
 40
0.057337
210
0.0
220
0.0
230
1.0
100
AcDbArc
 50
-32.630428
 51
4.238684
  0
ARC
  5
131
100
AcDbEntity
  8
1
  6
SOLID
 62
     0
100
AcDbCircle
 10
1.71917
 20
-0.583147
 30
0.0
 40
0.058475
210
0.0
220
0.0
230
1.0
100
AcDbArc
 50
-32.045351
 51
4.185445
  0
ARC
  5
132
100
AcDbEntity
  8
1
  6
SOLID
 62
     0
100
AcDbCircle
 10
1.735946
 20
-0.620892
 30
0.0
 40
0.03347
210
0.0
220
0.0
230
1.0
100
AcDbArc
 50
-35.142106
 51
11.580325
  0
ARC
  5
133
100
AcDbEntity
  8
1
  6
SOLID
 62
     0
100
AcDbCircle
 10
2.420175
 20
32.882833
 30
0.0
 40
33.529425
210
0.0
220
0.0
230
1.0
100
AcDbArc
 50
268.877473
 51
270.188715
  0
ARC
  5
134
100
AcDbEntity
  8
1
  6
SOLID
 62
     0
100
AcDbCircle
 10
2.518935
 20
4.750029
 30
0.0
 40
5.396452
210
0.0
220
0.0
230
1.0
100
AcDbArc
 50
270.12401
 51
272.635917
  0
LINE
  5
135
100
AcDbEntity
  8
1
  6
SOLID
 62
     0
100
AcDbLine
 10
2.767114
 20
-0.640713
 30
0.0
 11
2.788512
 21
-0.637517
 31
0.0
  0
LINE
  5
136
100
AcDbEntity
  8
1
  6
SOLID
 62
     0
100
AcDbLine
 10
2.788512
 20
-0.637517
 30
0.0
 11
2.798378
 21
-0.605836
 31
0.0
  0
LINE
  5
137
100
AcDbEntity
  8
1
  6
SOLID
 62
     0
100
AcDbLine
 10
2.798378
 20
-0.605836
 30
0.0
 11
2.87772
 21
-0.288189
 31
0.0
  0
LINE
  5
138
100
AcDbEntity
  8
1
  6
SOLID
 62
     0
100
AcDbLine
 10
2.87772
 20
-0.288189
 30
0.0
 11
2.883417
 21
-0.257341
 31
0.0
  0
LINE
  5
139
100
AcDbEntity
  8
1
  6
SOLID
 62
     0
100
AcDbLine
 10
2.883417
 20
-0.257341
 30
0.0
 11
2.886891
 21
-0.253867
 31
0.0
  0
LINE
  5
13A
100
AcDbEntity
  8
1
  6
SOLID
 62
     0
100
AcDbLine
 10
2.886891
 20
-0.253867
 30
0.0
 11
2.737794
 21
-0.249421
 31
0.0
  0
LINE
  5
13B
100
AcDbEntity
  8
1
  6
SOLID
 62
     0
100
AcDbLine
 10
2.737794
 20
-0.249421
 30
0.0
 11
2.67068
 21
-0.215933
 31
0.0
  0
LINE
  5
13C
100
AcDbEntity
  8
1
  6
SOLID
 62
     0
100
AcDbLine
 10
2.67068
 20
-0.215933
 30
0.0
 11
2.632745
 21
-0.18981
 31
0.0
  0
LINE
  5
13D
100
AcDbEntity
  8
1
  6
SOLID
 62
     0
100
AcDbLine
 10
2.632745
 20
-0.18981
 30
0.0
 11
2.595228
 21
-0.156183
 31
0.0
  0
ARC
  5
13E
100
AcDbEntity
  8
1
  6
SOLID
 62
     0
100
AcDbCircle
 10
7.162813
 20
4.60141
 30
0.0
 40
6.595266
210
0.0
220
0.0
230
1.0
100
AcDbArc
 50
222.789914
 51
226.167289
  0
LINE
  5
13F
100
AcDbEntity
  8
1
  6
SOLID
 62
     0
100
AcDbLine
 10
2.32288
 20
0.121167
 30
0.0
 11
2.315376
 21
0.131589
 31
0.0
  0
ARC
  5
140
100
AcDbEntity
  8
1
  6
SOLID
 62
     0
100
AcDbCircle
 10
2.34119
 20
0.131479
 30
0.0
 40
0.025814
210
0.0
220
0.0
230
1.0
100
AcDbArc
 50
117.496145
 51
179.756113
  0
ARC
  5
141
100
AcDbEntity
  8
1
  6
SOLID
 62
     0
100
AcDbCircle
 10
2.469942
 20
0.009806
 30
0.0
 40
0.201715
210
0.0
220
0.0
230
1.0
100
AcDbArc
 50
117.858688
 51
134.216509
  0
ARC
  5
142
100
AcDbEntity
  8
1
  6
SOLID
 62
     0
100
AcDbCircle
 10
2.476966
 20
0.106872
 30
0.0
 40
0.129859
210
0.0
220
0.0
230
1.0
100
AcDbArc
 50
116.151537
 51
141.255935
  0
ARC
  5
143
100
AcDbEntity
  8
1
  6
SOLID
 62
     0
100
AcDbCircle
 10
2.55573
 20
0.101276
 30
0.0
 40
0.182808
210
0.0
220
0.0
230
1.0
100
AcDbArc
 50
119.045966
 51
138.068408
  0
ARC
  5
144
100
AcDbEntity
  8
1
  6
SOLID
 62
     0
100
AcDbCircle
 10
2.560571
 20
0.173083
 30
0.0
 40
0.128476
210
0.0
220
0.0
230
1.0
100
AcDbArc
 50
117.196351
 51
136.761902
  0
ARC
  5
145
100
AcDbEntity
  8
1
  6
SOLID
 62
     0
100
AcDbCircle
 10
2.637998
 20
0.177747
 30
0.0
 40
0.174785
210
0.0
220
0.0
230
1.0
100
AcDbArc
 50
118.271928
 51
141.163044
  0
ARC
  5
146
100
AcDbEntity
  8
1
  6
SOLID
 62
     0
100
AcDbCircle
 10
2.626927
 20
0.270103
 30
0.0
 40
0.094526
210
0.0
220
0.0
230
1.0
100
AcDbArc
 50
113.8552
 51
139.349601
  0
ARC
  5
147
100
AcDbEntity
  8
1
  6
SOLID
 62
     0
100
AcDbCircle
 10
2.644312
 20
0.313752
 30
0.0
 40
0.070178
210
0.0
220
0.0
230
1.0
100
AcDbArc
 50
112.372871
 51
142.417408
  0
ARC
  5
148
100
AcDbEntity
  8
1
  6
SOLID
 62
     0
100
AcDbCircle
 10
2.501398
 20
0.541688
 30
0.0
 40
0.200213
210
0.0
220
0.0
230
1.0
100
AcDbArc
 50
305.478025
 51
318.148337
  0
ARC
  5
149
100
AcDbEntity
  8
1
  6
SOLID
 62
     0
100
AcDbCircle
 10
2.597066
 20
0.523448
 30
0.0
 40
0.127132
210
0.0
220
0.0
230
1.0
100
AcDbArc
 50
294.869703
 51
321.777462
  0
ARC
  5
14A
100
AcDbEntity
  8
1
  6
SOLID
 62
     0
100
AcDbCircle
 10
2.627369
 20
0.576751
 30
0.0
 40
0.149178
210
0.0
220
0.0
230
1.0
100
AcDbArc
 50
297.799007
 51
319.609041
  0
ARC
  5
14B
100
AcDbEntity
  8
1
  6
SOLID
 62
     0
100
AcDbCircle
 10
2.692348
 20
0.582736
 30
0.0
 40
0.113595
210
0.0
220
0.0
230
1.0
100
AcDbArc
 50
295.354045
 51
319.330861
  0
ARC
  5
14C
100
AcDbEntity
  8
1
  6
SOLID
 62
     0
100
AcDbCircle
 10
2.809837
 20
0.462901
 30
0.0
 40
0.055496
210
0.0
220
0.0
230
1.0
100
AcDbArc
 50
97.838679
 51
124.370669
  0
LINE
  5
14D
100
AcDbEntity
  8
1
  6
SOLID
 62
     0
100
AcDbLine
 10
2.802268
 20
0.517878
 30
0.0
 11
2.9893
 21
0.517878
 31
0.0
  0
LINE
  5
14E
100
AcDbEntity
  8
1
  6
SOLID
 62
     0
100
AcDbLine
 10
2.9893
 20
0.517878
 30
0.0
 11
3.032514
 21
0.522047
 31
0.0
  0
LINE
  5
14F
100
AcDbEntity
  8
1
  6
SOLID
 62
     0
100
AcDbLine
 10
3.032514
 20
0.522047
 30
0.0
 11
3.048632
 21
0.525243
 31
0.0
  0
LINE
  5
150
100
AcDbEntity
  8
1
  6
SOLID
 62
     0
100
AcDbLine
 10
3.048632
 20
0.525243
 30
0.0
 11
3.055441
 21
0.529412
 31
0.0
  0
ARC
  5
151
100
AcDbEntity
  8
1
  6
SOLID
 62
     0
100
AcDbCircle
 10
2.951936
 20
0.582701
 30
0.0
 40
0.116417
210
0.0
220
0.0
230
1.0
100
AcDbArc
 50
332.758156
 51
352.627459
  0
ARC
  5
152
100
AcDbEntity
  8
1
  6
SOLID
 62
     0
100
AcDbCircle
 10
3.039507
 20
0.588503
 30
0.0
 40
0.034752
210
0.0
220
0.0
230
1.0
100
AcDbArc
 50
323.357848
 51
367.98291
  0
ARC
  5
153
100
AcDbEntity
  8
1
  6
SOLID
 62
     0
100
AcDbCircle
 10
3.207564
 20
0.563013
 30
0.0
 40
0.137038
210
0.0
220
0.0
230
1.0
100
AcDbArc
 50
155.550609
 51
167.218522
  0
ARC
  5
154
100
AcDbEntity
  8
1
  6
SOLID
 62
     0
100
AcDbCircle
 10
3.135921
 20
0.624043
 30
0.0
 40
0.053281
210
0.0
220
0.0
230
1.0
100
AcDbArc
 50
146.618743
 51
184.641269
  0
ARC
  5
155
100
AcDbEntity
  8
1
  6
SOLID
 62
     0
100
AcDbCircle
 10
3.147241
 20
0.657733
 30
0.0
 40
0.055982
210
0.0
220
0.0
230
1.0
100
AcDbArc
 50
147.997198
 51
184.482139
  0
ARC
  5
156
100
AcDbEntity
  8
1
  6
SOLID
 62
     0
100
AcDbCircle
 10
3.173532
 20
0.695847
 30
0.0
 40
0.074247
210
0.0
220
0.0
230
1.0
100
AcDbArc
 50
150.24056
 51
186.531442
  0
ARC
  5
157
100
AcDbEntity
  8
1
  6
SOLID
 62
     0
100
AcDbCircle
 10
3.174824
 20
0.736344
 30
0.0
 40
0.065848
210
0.0
220
0.0
230
1.0
100
AcDbArc
 50
149.463585
 51
183.172491
  0
ARC
  5
158
100
AcDbEntity
  8
1
  6
SOLID
 62
     0
100
AcDbCircle
 10
3.171102
 20
0.774019
 30
0.0
 40
0.053161
210
0.0
220
0.0
230
1.0
100
AcDbArc
 50
146.59399
 51
184.551384
  0
ARC
  5
159
100
AcDbEntity
  8
1
  6
SOLID
 62
     0
100
AcDbCircle
 10
3.191684
 20
0.806998
 30
0.0
 40
0.065066
210
0.0
220
0.0
230
1.0
100
AcDbArc
 50
149.266643
 51
183.268893
  0
ARC
  5
15A
100
AcDbEntity
  8
1
  6
SOLID
 62
     0
100
AcDbCircle
 10
3.187157
 20
0.844646
 30
0.0
 40
0.051588
210
0.0
220
0.0
230
1.0
100
AcDbArc
 50
147.155077
 51
184.888713
  0
ARC
  5
15B
100
AcDbEntity
  8
1
  6
SOLID
 62
     0
100
AcDbCircle
 10
3.26002
 20
0.871863
 30
0.0
 40
0.116207
210
0.0
220
0.0
230
1.0
100
AcDbArc
 50
157.615266
 51
179.62414
  0
ARC
  5
15C
100
AcDbEntity
  8
1
  6
SOLID
 62
     0
100
AcDbCircle
 10
3.114393
 20
0.924046
 30
0.0
 40
0.038991
210
0.0
220
0.0
230
1.0
100
AcDbArc
 50
348.269133
 51
386.213894
  0
LINE
  5
15D
100
AcDbEntity
  8
1
  6
SOLID
 62
     0
100
AcDbLine
 10
3.149374
 20
0.941269
 30
0.0
 11
2.395692
 21
0.941269
 31
0.0
  0
LINE
  5
15E
100
AcDbEntity
  8
1
  6
SOLID
 62
     0
100
AcDbLine
 10
2.395692
 20
0.941269
 30
0.0
 11
2.224223
 21
0.938073
 31
0.0
  0
LINE
  5
15F
100
AcDbEntity
  8
1
  6
SOLID
 62
     0
100
AcDbLine
 10
2.224223
 20
0.938073
 30
0.0
 11
2.163223
 21
0.935572
 31
0.0
  0
LINE
  5
160
100
AcDbEntity
  8
1
  6
SOLID
 62
     0
100
AcDbLine
 10
2.163223
 20
0.935572
 30
0.0
 11
2.142102
 21
0.932515
 31
0.0
  0
LINE
  5
161
100
AcDbEntity
  8
1
  6
SOLID
 62
     0
100
AcDbLine
 10
2.142102
 20
0.932515
 30
0.0
 11
2.077906
 21
0.680732
 31
0.0
  0
LINE
  5
162
100
AcDbEntity
  8
1
  6
SOLID
 62
     0
100
AcDbLine
 10
2.077906
 20
0.680732
 30
0.0
 11
2.076516
 21
0.657943
 31
0.0
  0
LINE
  5
163
100
AcDbEntity
  8
1
  6
SOLID
 62
     0
100
AcDbLine
 10
2.076516
 20
0.657943
 30
0.0
 11
2.068596
 21
0.638212
 31
0.0
  0
LINE
  5
164
100
AcDbEntity
  8
1
  6
SOLID
 62
     0
100
AcDbLine
 10
2.068596
 20
0.638212
 30
0.0
 11
2.068457
 21
0.627652
 31
0.0
  0
LINE
  5
165
100
AcDbEntity
  8
1
  6
SOLID
 62
     0
100
AcDbLine
 10
2.068457
 20
0.627652
 30
0.0
 11
2.066234
 21
0.617925
 31
0.0
  0
ARC
  5
166
100
AcDbEntity
  8
1
  6
SOLID
 62
     0
100
AcDbCircle
 10
2.110479
 20
0.589625
 30
0.0
 40
0.052521
210
0.0
220
0.0
230
1.0
100
AcDbArc
 50
147.396548
 51
185.212665
  0
ARC
  5
167
100
AcDbEntity
  8
1
  6
SOLID
 62
     0
100
AcDbCircle
 10
2.080977
 20
0.565095
 30
0.0
 40
0.030173
210
0.0
220
0.0
230
1.0
100
AcDbArc
 50
139.090273
 51
213.483853
  0
ARC
  5
168
100
AcDbEntity
  8
1
  6
SOLID
 62
     0
100
AcDbCircle
 10
2.026429
 20
0.556784
 30
0.0
 40
0.030542
210
0.0
220
0.0
230
1.0
100
AcDbArc
 50
295.740569
 51
344.16143
  0
ARC
  5
169
100
AcDbEntity
  8
1
  6
SOLID
 62
     0
100
AcDbCircle
 10
2.100719
 20
0.41124
 30
0.0
 40
0.132875
210
0.0
220
0.0
230
1.0
100
AcDbArc
 50
117.339932
 51
140.718149
  0
ARC
  5
16A
100
AcDbEntity
  8
1
  6
SOLID
 62
     0
100
AcDbCircle
 10
1.969521
 20
0.525522
 30
0.0
 40
0.041386
210
0.0
220
0.0
230
1.0
100
AcDbArc
 50
277.913748
 51
313.231082
  0
ARC
  5
16B
100
AcDbEntity
  8
1
  6
SOLID
 62
     0
100
AcDbCircle
 10
2.01603
 20
0.531948
 30
0.0
 40
0.062561
210
0.0
220
0.0
230
1.0
100
AcDbArc
 50
203.87824
 51
229.283139
  0
ARC
  5
16C
100
AcDbEntity
  8
1
  6
SOLID
 62
     0
100
AcDbCircle
 10
2.014201
 20
0.584095
 30
0.0
 40
0.09523
210
0.0
220
0.0
230
1.0
100
AcDbArc
 50
208.454877
 51
234.442118
  0
ARC
  5
16D
100
AcDbEntity
  8
1
  6
SOLID
 62
     0
100
AcDbCircle
 10
1.938274
 20
0.544159
 30
0.0
 40
0.009506
210
0.0
220
0.0
230
1.0
100
AcDbArc
 50
118.949336
 51
214.889431
  0
ARC
  5
16E
100
AcDbEntity
  8
1
  6
SOLID
 62
     0
100
AcDbCircle
 10
1.918741
 20
0.577813
 30
0.0
 40
0.029408
210
0.0
220
0.0
230
1.0
100
AcDbArc
 50
300.512833
 51
374.970828
  0
ARC
  5
16F
100
AcDbEntity
  8
1
  6
SOLID
 62
     0
100
AcDbCircle
 10
1.902815
 20
0.613752
 30
0.0
 40
0.05262
210
0.0
220
0.0
230
1.0
100
AcDbArc
 50
327.411074
 51
365.307846
  0
ARC
  5
170
100
AcDbEntity
  8
1
  6
SOLID
 62
     0
100
AcDbCircle
 10
1.894301
 20
0.65359
 30
0.0
 40
0.070234
210
0.0
220
0.0
230
1.0
100
AcDbArc
 50
330.137877
 51
367.312363
  0
ARC
  5
171
100
AcDbEntity
  8
1
  6
SOLID
 62
     0
100
AcDbCircle
 10
1.922171
 20
0.69042
 30
0.0
 40
0.050245
210
0.0
220
0.0
230
1.0
100
AcDbArc
 50
326.282426
 51
365.757825
  0
ARC
  5
172
100
AcDbEntity
  8
1
  6
SOLID
 62
     0
100
AcDbCircle
 10
1.937438
 20
0.720895
 30
0.0
 40
0.043043
210
0.0
220
0.0
230
1.0
100
AcDbArc
 50
323.778287
 51
366.294262
  0
ARC
  5
173
100
AcDbEntity
  8
1
  6
SOLID
 62
     0
100
AcDbCircle
 10
2.050758
 20
0.716738
 30
0.0
 40
0.071093
210
0.0
220
0.0
230
1.0
100
AcDbArc
 50
150.122084
 51
172.828566
  0
ARC
  5
174
100
AcDbEntity
  8
1
  6
SOLID
 62
     0
100
AcDbCircle
 10
2.042109
 20
0.756372
 30
0.0
 40
0.053162
210
0.0
220
0.0
230
1.0
100
AcDbArc
 50
146.594141
 51
184.551643
  0
ARC
  5
175
100
AcDbEntity
  8
1
  6
SOLID
 62
     0
100
AcDbCircle
 10
2.043087
 20
0.790326
 30
0.0
 40
0.045599
210
0.0
220
0.0
230
1.0
100
AcDbArc
 50
147.713936
 51
185.896835
  0
ARC
  5
176
100
AcDbEntity
  8
1
  6
SOLID
 62
     0
100
AcDbCircle
 10
1.923897
 20
0.837671
 30
0.0
 40
0.083854
210
0.0
220
0.0
230
1.0
100
AcDbArc
 50
344.088319
 51
364.805871
  0
ARC
  5
177
100
AcDbEntity
  8
1
  6
SOLID
 62
     0
100
AcDbCircle
 10
1.970386
 20
0.870858
 30
0.0
 40
0.045373
210
0.0
220
0.0
230
1.0
100
AcDbArc
 50
324.787926
 51
365.926651
  0
ARC
  5
178
100
AcDbEntity
  8
1
  6
SOLID
 62
     0
100
AcDbCircle
 10
2.075089
 20
0.868662
 30
0.0
 40
0.05997
210
0.0
220
0.0
230
1.0
100
AcDbArc
 50
148.183799
 51
173.410238
  0
ARC
  5
179
100
AcDbEntity
  8
1
  6
SOLID
 62
     0
100
AcDbCircle
 10
2.065297
 20
0.905607
 30
0.0
 40
0.041509
210
0.0
220
0.0
230
1.0
100
AcDbArc
 50
145.86148
 51
187.376773
  0
LINE
  5
17A
100
AcDbEntity
  8
1
  6
SOLID
 62
     0
100
AcDbLine
 10
2.03094
 20
0.928902
 30
0.0
 11
2.0308
 21
0.934043
 31
0.0
  0
ARC
  5
17B
100
AcDbEntity
  8
1
  6
SOLID
 62
     0
100
AcDbCircle
 10
2.013478
 20
0.91309
 30
0.0
 40
0.027186
210
0.0
220
0.0
230
1.0
100
AcDbArc
 50
50.418636
 51
78.601892
  0
ARC
  5
17C
100
AcDbEntity
  8
1
  6
SOLID
 62
     0
100
AcDbCircle
 10
1.663519
 20
-37.862482
 30
0.0
 40
38.80385
210
0.0
220
0.0
230
1.0
100
AcDbArc
 50
89.475328
 51
90.7622
  0
ARC
  5
17D
100
AcDbEntity
  8
1
  6
SOLID
 62
     0
100
AcDbCircle
 10
1.126245
 20
-0.496407
 30
0.0
 40
1.434496
210
0.0
220
0.0
230
1.0
100
AcDbArc
 50
89.157533
 51
95.052652
  0
LINE
  5
17E
100
AcDbEntity
  8
1
  6
SOLID
 62
     0
100
AcDbLine
 10
0.999907
 20
0.932515
 30
0.0
 11
0.992403
 21
0.929875
 31
0.0
  0
ARC
  5
17F
100
AcDbEntity
  8
1
  6
SOLID
 62
     0
100
AcDbCircle
 10
-0.773978
 20
0.861058
 30
0.0
 40
0.07675
210
0.0
220
0.0
230
1.0
100
AcDbArc
 50
125.396522
 51
157.401405
  0
ARC
  5
180
100
AcDbEntity
  8
1
  6
SOLID
 62
     0
100
AcDbCircle
 10
-1.055708
 20
1.054501
 30
0.0
 40
0.267108
210
0.0
220
0.0
230
1.0
100
AcDbArc
 50
311.175759
 51
322.13549
  0
ARC
  5
181
100
AcDbEntity
  8
1
  6
SOLID
 62
     0
100
AcDbCircle
 10
-1.119998
 20
1.003416
 30
0.0
 40
0.283126
210
0.0
220
0.0
230
1.0
100
AcDbArc
 50
315.298351
 51
328.016311
  0
ARC
  5
182
100
AcDbEntity
  8
1
  6
SOLID
 62
     0
100
AcDbCircle
 10
-1.429521
 20
1.082462
 30
0.0
 40
0.581614
210
0.0
220
0.0
230
1.0
100
AcDbArc
 50
324.978069
 51
331.423865
  0
LINE
  5
183
100
AcDbEntity
  8
1
  6
SOLID
 62
     0
100
AcDbLine
 10
-1.008244
 20
0.451737
 30
0.0
 11
-1.005465
 21
0.437703
 31
0.0
  0
ARC
  5
184
100
AcDbEntity
  8
1
  6
SOLID
 62
     0
100
AcDbCircle
 10
-1.096465
 20
0.40137
 30
0.0
 40
0.097985
210
0.0
220
0.0
230
1.0
100
AcDbArc
 50
-4.597253
 51
21.76492
  0
ARC
  5
185
100
AcDbEntity
  8
1
  6
SOLID
 62
     0
100
AcDbCircle
 10
-1.024408
 20
0.372102
 30
0.0
 40
0.033384
210
0.0
220
0.0
230
1.0
100
AcDbArc
 50
-35.611643
 51
39.896945
  0
ARC
  5
186
100
AcDbEntity
  8
1
  6
SOLID
 62
     0
100
AcDbCircle
 10
-1.229158
 20
0.611195
 30
0.0
 40
0.347292
210
0.0
220
0.0
230
1.0
100
AcDbArc
 50
298.924967
 51
311.890698
  0
ARC
  5
187
100
AcDbEntity
  8
1
  6
SOLID
 62
     0
100
AcDbCircle
 10
1.687216
 20
-3.720563
 30
0.0
 40
4.876145
210
0.0
220
0.0
230
1.0
100
AcDbArc
 50
124.308063
 51
125.719518
  0
ARC
  5
188
100
AcDbEntity
  8
1
  6
SOLID
 62
     0
100
AcDbCircle
 10
-1.23268
 20
0.300045
 30
0.0
 40
0.095696
210
0.0
220
0.0
230
1.0
100
AcDbArc
 50
293.551985
 51
319.821695
  0
LINE
  5
189
100
AcDbEntity
  8
1
  6
SOLID
 62
     0
100
AcDbLine
 10
-1.194441
 20
0.212321
 30
0.0
 11
-1.277396
 21
0.127976
 31
0.0
  0
ARC
  5
18A
100
AcDbEntity
  8
1
  6
SOLID
 62
     0
100
AcDbCircle
 10
-0.801144
 20
-0.172817
 30
0.0
 40
0.5699
210
0.0
220
0.0
230
1.0
100
AcDbArc
 50
153.972312
 51
170.191317
  0
ARC
  5
18B
100
AcDbEntity
  8
1
  6
SOLID
 62
     0
100
AcDbCircle
 10
-3.125612
 20
0.058955
 30
0.0
 40
1.768036
210
0.0
220
0.0
230
1.0
100
AcDbArc
 50
354.342828
 51
355.63112
  0
ARC
  5
18C
100
AcDbEntity
  8
1
  6
SOLID
 62
     0
100
AcDbCircle
 10
-1.34375
 20
-0.131658
 30
0.0
 40
0.027749
210
0.0
220
0.0
230
1.0
100
AcDbArc
 50
143.957657
 51
216.042333
  0
ARC
  5
18D
100
AcDbEntity
  8
1
  6
SOLID
 62
     0
100
AcDbCircle
 10
-1.431467
 20
-0.138066
 30
0.0
 40
0.066029
210
0.0
220
0.0
230
1.0
100
AcDbArc
 50
335.324029
 51
351.35993
  0
ARC
  5
18E
100
AcDbEntity
  8
1
  6
SOLID
 62
     0
100
AcDbCircle
 10
-1.416469
 20
-0.190478
 30
0.0
 40
0.051404
210
0.0
220
0.0
230
1.0
100
AcDbArc
 50
-6.082574
 51
28.903796
  0
ARC
  5
18F
100
AcDbEntity
  8
1
  6
SOLID
 62
     0
100
AcDbCircle
 10
-1.527444
 20
-0.231427
 30
0.0
 40
0.165932
210
0.0
220
0.0
230
1.0
100
AcDbArc
 50
-1.895586
 51
12.354541
  0
ARC
  5
190
100
AcDbEntity
  8
1
  6
SOLID
 62
     0
100
AcDbCircle
 10
-1.343652
 20
-0.236056
 30
0.0
 40
0.017971
210
0.0
220
0.0
230
1.0
100
AcDbArc
 50
182.739662
 51
229.390083
  0
ARC
  5
191
100
AcDbEntity
  8
1
  6
SOLID
 62
     0
100
AcDbCircle
 10
-1.353631
 20
-0.215435
 30
0.0
 40
0.034307
210
0.0
220
0.0
230
1.0
100
AcDbArc
 50
267.129026
 51
327.243577
  0
ARC
  5
192
100
AcDbEntity
  8
1
  6
SOLID
 62
     0
100
AcDbCircle
 10
-1.347852
 20
-0.150897
 30
0.0
 40
0.086244
210
0.0
220
0.0
230
1.0
100
AcDbArc
 50
285.517671
 51
318.527576
  0
LINE
  5
193
100
AcDbEntity
  8
1
  6
SOLID
 62
     0
100
AcDbLine
 10
-1.283232
 20
-0.208013
 30
0.0
 11
-1.281704
 21
-0.325845
 31
0.0
  0
LINE
  5
194
100
AcDbEntity
  8
1
  6
SOLID
 62
     0
100
AcDbLine
 10
-1.281704
 20
-0.325845
 30
0.0
 11
-1.278925
 21
-0.33849
 31
0.0
  0
ARC
  5
195
100
AcDbEntity
  8
1
  6
SOLID
 62
     0
100
AcDbCircle
 10
-0.983587
 20
-0.195172
 30
0.0
 40
0.328275
210
0.0
220
0.0
230
1.0
100
AcDbArc
 50
205.885766
 51
218.244157
  0
LINE
  5
196
100
AcDbEntity
  8
1
  6
SOLID
 62
     0
100
AcDbLine
 10
-1.241408
 20
-0.398379
 30
0.0
 11
-1.234738
 21
-0.401713
 31
0.0
  0
ARC
  5
197
100
AcDbEntity
  8
1
  6
SOLID
 62
     0
100
AcDbCircle
 10
-1.260401
 20
-0.350767
 30
0.0
 40
0.057045
210
0.0
220
0.0
230
1.0
100
AcDbArc
 50
296.735765
 51
339.965464
  0
ARC
  5
198
100
AcDbEntity
  8
1
  6
SOLID
 62
     0
100
AcDbCircle
 10
-1.139577
 20
-0.41916
 30
0.0
 40
0.083104
210
0.0
220
0.0
230
1.0
100
AcDbArc
 50
106.797825
 51
143.997996
  0
ARC
  5
199
100
AcDbEntity
  8
1
  6
SOLID
 62
     0
100
AcDbCircle
 10
-1.207204
 20
-0.375935
 30
0.0
 40
0.056763
210
0.0
220
0.0
230
1.0
100
AcDbArc
 50
-7.669828
 51
39.799338
  0
ARC
  5
19A
100
AcDbEntity
  8
1
  6
SOLID
 62
     0
100
AcDbCircle
 10
-0.829055
 20
-0.287443
 30
0.0
 40
0.335924
210
0.0
220
0.0
230
1.0
100
AcDbArc
 50
196.617404
 51
218.210293
  0
ARC
  5
19B
100
AcDbEntity
  8
1
  6
SOLID
 62
     0
100
AcDbCircle
 10
-1.052991
 20
-0.460451
 30
0.0
 40
0.053015
210
0.0
220
0.0
230
1.0
100
AcDbArc
 50
220.994705
 51
281.188213
  0
ARC
  5
19C
100
AcDbEntity
  8
1
  6
SOLID
 62
     0
100
AcDbCircle
 10
-1.071384
 20
-0.477615
 30
0.0
 40
0.045129
210
0.0
220
0.0
230
1.0
100
AcDbArc
 50
309.457512
 51
342.296634
  0
ARC
  5
19D
100
AcDbEntity
  8
1
  6
SOLID
 62
     0
100
AcDbCircle
 10
-1.117771
 20
-0.394759
 30
0.0
 40
0.13159
210
0.0
220
0.0
230
1.0
100
AcDbArc
 50
312.782584
 51
332.924495
  0
ARC
  5
19E
100
AcDbEntity
  8
1
  6
SOLID
 62
     0
100
AcDbCircle
 10
-0.910519
 20
-0.51592
 30
0.0
 40
0.108942
210
0.0
220
0.0
230
1.0
100
AcDbArc
 50
118.516298
 51
145.780566
  0
ARC
  5
19F
100
AcDbEntity
  8
1
  6
SOLID
 62
     0
100
AcDbCircle
 10
-0.957064
 20
-0.428203
 30
0.0
 40
0.009695
210
0.0
220
0.0
230
1.0
100
AcDbArc
 50
27.882574
 51
124.309115
  0
ARC
  5
1A0
100
AcDbEntity
  8
1
  6
SOLID
 62
     0
100
AcDbCircle
 10
-1.186293
 20
-0.543712
 30
0.0
 40
0.266381
210
0.0
220
0.0
230
1.0
100
AcDbArc
 50
16.046763
 51
26.785196
  0
LINE
  5
1A1
100
AcDbEntity
  8
1
  6
SOLID
 62
     0
100
AcDbLine
 10
-0.930291
 20
-0.470078
 30
0.0
 11
-0.91987
 21
-0.488837
 31
0.0
  0
ARC
  5
1A2
100
AcDbEntity
  8
1
  6
SOLID
 62
     0
100
AcDbCircle
 10
-0.606928
 20
-0.245078
 30
0.0
 40
0.396675
210
0.0
220
0.0
230
1.0
100
AcDbArc
 50
217.916038
 51
231.729887
  0
ARC
  5
1A3
100
AcDbEntity
  8
1
  6
SOLID
 62
     0
100
AcDbCircle
 10
-0.805179
 20
-0.492041
 30
0.0
 40
0.080039
210
0.0
220
0.0
230
1.0
100
AcDbArc
 50
233.652302
 51
264.081679
  0
ARC
  5
1A4
100
AcDbEntity
  8
1
  6
SOLID
 62
     0
100
AcDbCircle
 10
-0.813525
 20
-0.565018
 30
0.0
 40
0.006635
210
0.0
220
0.0
230
1.0
100
AcDbArc
 50
270.805581
 51
318.330348
  0
ARC
  5
1A5
100
AcDbEntity
  8
1
  6
SOLID
 62
     0
100
AcDbCircle
 10
-0.723911
 20
-0.490803
 30
0.0
 40
0.050222
210
0.0
220
0.0
230
1.0
100
AcDbArc
 50
-5.533618
 51
31.929232
  0
ARC
  5
1A6
100
AcDbEntity
  8
1
  6
SOLID
 62
     0
100
AcDbCircle
 10
-0.777139
 20
-0.540818
 30
0.0
 40
0.112668
210
0.0
220
0.0
230
1.0
100
AcDbArc
 50
-0.416358
 51
23.63636
  0
ARC
  5
1A7
100
AcDbEntity
  8
1
  6
SOLID
 62
     0
100
AcDbCircle
 10
-0.613279
 20
-0.619971
 30
0.0
 40
0.034979
210
0.0
220
0.0
230
1.0
100
AcDbArc
 50
182.793853
 51
216.086282
  0
ARC
  5
1A8
100
AcDbEntity
  8
1
  6
SOLID
 62
     0
100
AcDbCircle
 10
-0.744127
 20
-0.665839
 30
0.0
 40
0.105646
210
0.0
220
0.0
230
1.0
100
AcDbArc
 50
-3.028796
 51
13.836413
  0
ARC
  5
1A9
100
AcDbEntity
  8
1
  6
SOLID
 62
     0
100
AcDbCircle
 10
-0.690116
 20
-0.702291
 30
0.0
 40
0.060032
210
0.0
220
0.0
230
1.0
100
AcDbArc
 50
-7.292391
 51
30.944582
  0
ARC
  5
1AA
100
AcDbEntity
  8
1
  6
SOLID
 62
     0
100
AcDbCircle
 10
-0.595634
 20
-0.708207
 30
0.0
 40
0.034977
210
0.0
220
0.0
230
1.0
100
AcDbArc
 50
182.793511
 51
216.087115
  0
ARC
  5
1AB
100
AcDbEntity
  8
1
  6
SOLID
 62
     0
100
AcDbCircle
 10
-0.799123
 20
-0.760952
 30
0.0
 40
0.178148
210
0.0
220
0.0
230
1.0
100
AcDbArc
 50
0.460968
 51
10.394778
  0
ARC
  5
1AC
100
AcDbEntity
  8
1
  6
SOLID
 62
     0
100
AcDbCircle
 10
-0.684574
 20
-0.795509
 30
0.0
 40
0.073071
210
0.0
220
0.0
230
1.0
100
AcDbArc
 50
-1.634099
 51
29.508664
  0
ARC
  5
1AD
100
AcDbEntity
  8
1
  6
SOLID
 62
     0
100
AcDbCircle
 10
-0.646007
 20
-0.821811
 30
0.0
 40
0.042132
210
0.0
220
0.0
230
1.0
100
AcDbArc
 50
-6.760456
 51
35.089779
  0
ARC
  5
1AE
100
AcDbEntity
  8
1
  6
SOLID
 62
     0
100
AcDbCircle
 10
-0.779856
 20
-0.911592
 30
0.0
 40
0.195091
210
0.0
220
0.0
230
1.0
100
AcDbArc
 50
5.576114
 51
25.770917
  0
ARC
  5
1AF
100
AcDbEntity
  8
1
  6
SOLID
 62
     0
100
AcDbCircle
 10
-0.747059
 20
-0.977233
 30
0.0
 40
0.182202
210
0.0
220
0.0
230
1.0
100
AcDbArc
 50
12.053465
 51
27.665348
  0
LINE
  5
1B0
100
AcDbEntity
  8
1
  6
SOLID
 62
     0
100
AcDbLine
 10
-0.568874
 20
-0.939184
 30
0.0
 11
-0.5176
 21
-1.039925
 31
0.0
  0
LINE
  5
1B1
100
AcDbEntity
  8
1
  6
SOLID
 62
     0
100
AcDbLine
 10
-0.5176
 20
-1.039925
 30
0.0
 11
-0.503149
 21
-1.058684
 31
0.0
  0
ARC
  5
1B2
100
AcDbEntity
  8
1
  6
SOLID
 62
     0
100
AcDbCircle
 10
-0.447788
 20
-1.025853
 30
0.0
 40
0.064364
210
0.0
220
0.0
230
1.0
100
AcDbArc
 50
210.669317
 51
261.631663
  0
ARC
  5
1B3
100
AcDbEntity
  8
1
  6
SOLID
 62
     0
100
AcDbCircle
 10
-0.437084
 20
-1.0642
 30
0.0
 40
0.03232
210
0.0
220
0.0
230
1.0
100
AcDbArc
 50
231.608764
 51
301.506222
  0
ARC
  5
1B4
100
AcDbEntity
  8
1
  6
SOLID
 62
     0
100
AcDbCircle
 10
-0.507535
 20
-0.81749
 30
0.0
 40
0.287837
210
0.0
220
0.0
230
1.0
100
AcDbArc
 50
287.664263
 51
308.113942
  0
ARC
  5
1B5
100
AcDbEntity
  8
1
  6
SOLID
 62
     0
100
AcDbCircle
 10
-0.93761
 20
-0.340352
 30
0.0
 40
0.929731
210
0.0
220
0.0
230
1.0
100
AcDbArc
 50
310.818741
 51
320.081253
  0
ARC
  5
1B6
100
AcDbEntity
  8
1
  6
SOLID
 62
     0
100
AcDbCircle
 10
-0.064083
 20
-1.029543
 30
0.0
 40
0.185258
210
0.0
220
0.0
230
1.0
100
AcDbArc
 50
130.666713
 51
150.016841
  0
ARC
  5
1B7
100
AcDbEntity
  8
1
  6
SOLID
 62
     0
100
AcDbCircle
 10
-0.047105
 20
-0.967088
 30
0.0
 40
0.158292
210
0.0
220
0.0
230
1.0
100
AcDbArc
 50
134.046455
 51
150.450612
  0
ARC
  5
1B8
100
AcDbEntity
  8
1
  6
SOLID
 62
     0
100
AcDbCircle
 10
-0.046278
 20
-0.906784
 30
0.0
 40
0.123098
210
0.0
220
0.0
230
1.0
100
AcDbArc
 50
132.627087
 51
154.253662
  0
ARC
  5
1B9
100
AcDbEntity
  8
1
  6
SOLID
 62
     0
100
AcDbCircle
 10
-0.034267
 20
-0.862235
 30
0.0
 40
0.1059
210
0.0
220
0.0
230
1.0
100
AcDbArc
 50
131.338831
 51
154.240411
  0
ARC
  5
1BA
100
AcDbEntity
  8
1
  6
SOLID
 62
     0
100
AcDbCircle
 10
0.201182
 20
-0.930574
 30
0.0
 40
0.339304
210
0.0
220
0.0
230
1.0
100
AcDbArc
 50
135.909375
 51
154.167109
  0
ARC
  5
1BB
100
AcDbEntity
  8
1
  6
SOLID
 62
     0
100
AcDbCircle
 10
0.752267
 20
-1.12773
 30
0.0
 40
0.905198
210
0.0
220
0.0
230
1.0
100
AcDbArc
 50
142.019813
 51
151.404967
  0
ARC
  5
1BC
100
AcDbEntity
  8
1
  6
SOLID
 62
     0
100
AcDbCircle
 10
-0.026643
 20
-0.495965
 30
0.0
 40
0.099303
210
0.0
220
0.0
230
1.0
100
AcDbArc
 50
311.201423
 51
337.394416
  0
ARC
  5
1BD
100
AcDbEntity
  8
1
  6
SOLID
 62
     0
100
AcDbCircle
 10
0.34199
 20
-0.686647
 30
0.0
 40
0.316174
210
0.0
220
0.0
230
1.0
100
AcDbArc
 50
135.545121
 51
151.160091
  0
ARC
  5
1BE
100
AcDbEntity
  8
1
  6
SOLID
 62
     0
100
AcDbCircle
 10
0.165454
 20
-0.47863
 30
0.0
 40
0.050949
210
0.0
220
0.0
230
1.0
100
AcDbArc
 50
107.576193
 51
164.733904
  0
ARC
  5
1BF
100
AcDbEntity
  8
1
  6
SOLID
 62
     0
100
AcDbCircle
 10
0.132047
 20
-0.472756
 30
0.0
 40
0.046344
210
0.0
220
0.0
230
1.0
100
AcDbArc
 50
19.853854
 51
67.115358
  0
ARC
  5
1C0
100
AcDbEntity
  8
1
  6
SOLID
 62
     0
100
AcDbCircle
 10
-0.007141
 20
-0.533927
 30
0.0
 40
0.1983
210
0.0
220
0.0
230
1.0
100
AcDbArc
 50
-5.126074
 51
22.820668
  0
ARC
  5
1C1
100
AcDbEntity
  8
1
  6
SOLID
 62
     0
100
AcDbCircle
 10
0.206607
 20
-0.55453
 30
0.0
 40
0.016496
210
0.0
220
0.0
230
1.0
100
AcDbArc
 50
169.923386
 51
305.013476
  0
ARC
  5
1C2
100
AcDbEntity
  8
1
  6
SOLID
 62
     0
100
AcDbCircle
 10
0.027278
 20
-0.123582
 30
0.0
 40
0.482893
210
0.0
220
0.0
230
1.0
100
AcDbArc
 50
293.01446
 51
304.366053
  0
ARC
  5
1C3
100
AcDbEntity
  8
1
  6
SOLID
 62
     0
100
AcDbCircle
 10
0.160248
 20
-0.301002
 30
0.0
 40
0.261561
210
0.0
220
0.0
230
1.0
100
AcDbArc
 50
302.260541
 51
328.312314
  0
ARC
  5
1C4
100
AcDbEntity
  8
1
  6
SOLID
 62
     0
100
AcDbCircle
 10
0.416864
 20
-0.460237
 30
0.0
 40
0.04045
210
0.0
220
0.0
230
1.0
100
AcDbArc
 50
105.752328
 51
147.322345
  0
ARC
  5
1C5
100
AcDbEntity
  8
1
  6
SOLID
 62
     0
100
AcDbCircle
 10
0.398708
 20
-0.456724
 30
0.0
 40
0.036137
210
0.0
220
0.0
230
1.0
100
AcDbArc
 50
24.510561
 51
78.548487
  0
ARC
  5
1C6
100
AcDbEntity
  8
1
  6
SOLID
 62
     0
100
AcDbCircle
 10
0.392517
 20
-0.477827
 30
0.0
 40
0.053192
210
0.0
220
0.0
230
1.0
100
AcDbArc
 50
-5.281447
 51
42.732884
  0
ARC
  5
1C7
100
AcDbEntity
  8
1
  6
SOLID
 62
     0
100
AcDbCircle
 10
0.476781
 20
-0.484178
 30
0.0
 40
0.03133
210
0.0
220
0.0
230
1.0
100
AcDbArc
 50
177.338171
 51
252.918019
  0
ARC
  5
1C8
100
AcDbEntity
  8
1
  6
SOLID
 62
     0
100
AcDbCircle
 10
0.385215
 20
-0.281781
 30
0.0
 40
0.246512
210
0.0
220
0.0
230
1.0
100
AcDbArc
 50
289.518468
 51
318.258685
  0
LINE
  5
1C9
100
AcDbEntity
  8
1
  6
SOLID
 62
     0
100
AcDbLine
 10
0.569152
 20
-0.445901
 30
0.0
 11
0.61334
 21
-0.398934
 31
0.0
  0
LINE
  5
1CA
100
AcDbEntity
  8
1
  6
SOLID
 62
     0
100
AcDbLine
 10
0.61334
 20
-0.398934
 30
0.0
 11
0.620982
 21
-0.385595
 31
0.0
  0
ARC
  5
1CB
100
AcDbEntity
  8
1
  6
SOLID
 62
     0
100
AcDbCircle
 10
0.546796
 20
-0.301037
 30
0.0
 40
0.112488
210
0.0
220
0.0
230
1.0
100
AcDbArc
 50
311.261419
 51
339.422081
  0
ARC
  5
1CC
100
AcDbEntity
  8
1
  6
SOLID
 62
     0
100
AcDbCircle
 10
0.658407
 20
-0.357217
 30
0.0
 40
0.017795
210
0.0
220
0.0
230
1.0
100
AcDbArc
 50
31.953701
 51
110.734421
  0
ARC
  5
1CD
100
AcDbEntity
  8
1
  6
SOLID
 62
     0
100
AcDbCircle
 10
0.648251
 20
-0.374552
 30
0.0
 40
0.03679
210
0.0
220
0.0
230
1.0
100
AcDbArc
 50
0.560916
 51
46.649267
  0
ARC
  5
1CE
100
AcDbEntity
  8
1
  6
SOLID
 62
     0
100
AcDbCircle
 10
0.640838
 20
-0.402902
 30
0.0
 40
0.052702
210
0.0
220
0.0
230
1.0
100
AcDbArc
 50
1.74663
 51
32.99664
  0
LINE
  5
1CF
100
AcDbEntity
  8
1
  6
SOLID
 62
     0
100
AcDbLine
 10
0.693515
 20
-0.401297
 30
0.0
 11
0.697267
 21
-0.403937
 31
0.0
  0
ARC
  5
1D0
100
AcDbEntity
  8
1
  6
SOLID
 62
     0
100
AcDbCircle
 10
0.829664
 20
-0.572952
 30
0.0
 40
0.214697
210
0.0
220
0.0
230
1.0
100
AcDbArc
 50
118.228406
 51
128.07315
  0
ARC
  5
1D1
100
AcDbEntity
  8
1
  6
SOLID
 62
     0
100
AcDbCircle
 10
0.54511
 20
-0.168359
 30
0.0
 40
0.282667
210
0.0
220
0.0
230
1.0
100
AcDbArc
 50
310.347458
 51
332.052662
  0
ARC
  5
1D2
100
AcDbEntity
  8
1
  6
SOLID
 62
     0
100
AcDbCircle
 10
0.653719
 20
-0.19387
 30
0.0
 40
0.177055
210
0.0
220
0.0
230
1.0
100
AcDbArc
 50
322.834055
 51
349.884947
  0
ARC
  5
1D3
100
AcDbEntity
  8
1
  6
SOLID
 62
     0
100
AcDbCircle
 10
0.840645
 20
-0.232859
 30
0.0
 40
0.014888
210
0.0
220
0.0
230
1.0
100
AcDbArc
 50
53.216101
 51
147.97807
  0
LINE
  5
1D4
100
AcDbEntity
  8
1
  6
SOLID
 62
     0
100
AcDbLine
 10
0.84956
 20
-0.220936
 30
0.0
 11
0.889301
 21
-0.251922
 31
0.0
  0
LINE
  5
1D5
100
AcDbEntity
  8
1
  6
SOLID
 62
     0
100
AcDbLine
 10
0.889301
 20
-0.251922
 30
0.0
 11
0.895553
 21
-0.251366
 31
0.0
  0
LINE
  5
1D6
100
AcDbEntity
  8
1
  6
SOLID
 62
     0
100
AcDbLine
 10
0.895553
 20
-0.251366
 30
0.0
 11
0.901389
 21
-0.244696
 31
0.0
  0
ARC
  5
1D7
100
AcDbEntity
  8
1
  6
SOLID
 62
     0
100
AcDbCircle
 10
-0.830872
 20
0.734173
 30
0.0
 40
1.989702
210
0.0
220
0.0
230
1.0
100
AcDbArc
 50
330.530011
 51
336.081271
  0
ARC
  5
1D8
100
AcDbEntity
  8
1
  6
SOLID
 62
     0
100
AcDbCircle
 10
0.835607
 20
-0.006653
 30
0.0
 40
0.165984
210
0.0
220
0.0
230
1.0
100
AcDbArc
 50
336.615136
 51
360.811083
  0
ARC
  5
1D9
100
AcDbEntity
  8
1
  6
SOLID
 62
     0
100
AcDbCircle
 10
1.048919
 20
-0.009583
 30
0.0
 40
0.047638
210
0.0
220
0.0
230
1.0
100
AcDbArc
 50
146.150219
 51
173.641987
  0
ARC
  5
1DA
100
AcDbEntity
  8
1
  6
SOLID
 62
     0
100
AcDbCircle
 10
0.590573
 20
0.055151
 30
0.0
 40
0.420521
210
0.0
220
0.0
230
1.0
100
AcDbArc
 50
354.788302
 51
366.166786
  0
ARC
  5
1DB
100
AcDbEntity
  8
1
  6
SOLID
 62
     0
100
AcDbCircle
 10
0.635799
 20
-0.013585
 30
0.0
 40
0.389874
210
0.0
220
0.0
230
1.0
100
AcDbArc
 50
16.987924
 51
36.571698
  0
ARC
  5
1DC
100
AcDbEntity
  8
1
  6
SOLID
 62
     0
100
AcDbCircle
 10
1.035743
 20
0.319208
 30
0.0
 40
0.132813
210
0.0
220
0.0
230
1.0
100
AcDbArc
 50
205.749412
 51
229.171944
  0
ARC
  5
1DD
100
AcDbEntity
  8
1
  6
SOLID
 62
     0
100
AcDbCircle
 10
0.400564
 20
-0.19985
 30
0.0
 40
0.691845
210
0.0
220
0.0
230
1.0
100
AcDbArc
 50
41.824776
 51
50.361867
  0
ARC
  5
1DE
100
AcDbEntity
  8
1
  6
SOLID
 62
     0
100
AcDbCircle
 10
0.844401
 20
0.357232
 30
0.0
 40
0.024426
210
0.0
220
0.0
230
1.0
100
AcDbArc
 50
185.837037
 51
264.162976
  0
ARC
  5
1DF
100
AcDbEntity
  8
1
  6
SOLID
 62
     0
100
AcDbCircle
 10
0.855879
 20
0.346901
 30
0.0
 40
0.036628
210
0.0
220
0.0
230
1.0
100
AcDbArc
 50
131.156602
 51
167.630013
  0
ARC
  5
1E0
100
AcDbEntity
  8
1
  6
SOLID
 62
     0
100
AcDbCircle
 10
0.907814
 20
0.343137
 30
0.0
 40
0.082246
210
0.0
220
0.0
230
1.0
100
AcDbArc
 50
127.978774
 51
157.599785
  0
ARC
  5
1E1
100
AcDbEntity
  8
1
  6
SOLID
 62
     0
100
AcDbCircle
 10
0.041559
 20
0.954859
 30
0.0
 40
0.982021
210
0.0
220
0.0
230
1.0
100
AcDbArc
 50
326.157953
 51
339.319929
  0
LINE
  5
1E2
100
AcDbEntity
  8
1
  6
SOLID
 62
     0
100
AcDbLine
 10
0.960305
 20
0.608059
 30
0.0
 11
0.974756
 21
0.668365
 31
0.0
  0
ARC
  5
1E3
100
AcDbEntity
  8
1
  6
SOLID
 62
     0
100
AcDbCircle
 10
0.27096
 20
0.716165
 30
0.0
 40
0.705418
210
0.0
220
0.0
230
1.0
100
AcDbArc
 50
356.114616
 51
366.503457
  0
ARC
  5
1E4
100
AcDbEntity
  8
1
  6
SOLID
 62
     0
100
AcDbCircle
 10
1.030688
 20
0.826445
 30
0.0
 40
0.06623
210
0.0
220
0.0
230
1.0
100
AcDbArc
 50
178.754947
 51
207.306104
  0
ARC
  5
1E5
100
AcDbEntity
  8
1
  6
SOLID
 62
     0
100
AcDbCircle
 10
0.532493
 20
0.695891
 30
0.0
 40
0.451696
210
0.0
220
0.0
230
1.0
100
AcDbArc
 50
16.990553
 51
30.153759
  0
ARC
  5
1E6
100
AcDbEntity
  8
1
  6
SOLID
 62
     0
100
AcDbCircle
 10
0.907643
 20
0.915566
 30
0.0
 40
0.01703
210
0.0
220
0.0
230
1.0
100
AcDbArc
 50
25.090259
 51
95.621149
  0
ARC
  5
1E7
100
AcDbEntity
  8
1
  6
SOLID
 62
     0
100
AcDbCircle
 10
0.900174
 20
0.862096
 30
0.0
 40
0.070657
210
0.0
220
0.0
230
1.0
100
AcDbArc
 50
85.290867
 51
119.223066
  0
ARC
  5
1E8
100
AcDbEntity
  8
1
  6
SOLID
 62
     0
100
AcDbCircle
 10
0.856369
 20
0.877662
 30
0.0
 40
0.047029
210
0.0
220
0.0
230
1.0
100
AcDbArc
 50
78.58343
 51
123.338091
  0
ARC
  5
1E9
100
AcDbEntity
  8
1
  6
SOLID
 62
     0
100
AcDbCircle
 10
0.79838
 20
1.092176
 30
0.0
 40
0.178148
210
0.0
220
0.0
230
1.0
100
AcDbArc
 50
270.461301
 51
280.394784
  0
ARC
  5
1EA
100
AcDbEntity
  8
1
  6
SOLID
 62
     0
100
AcDbCircle
 10
0.763824
 20
0.977625
 30
0.0
 40
0.073069
210
0.0
220
0.0
230
1.0
100
AcDbArc
 50
268.36692
 51
299.508904
  0
ARC
  5
1EB
100
AcDbEntity
  8
1
  6
SOLID
 62
     0
100
AcDbCircle
 10
0.718929
 20
1.004825
 30
0.0
 40
0.108999
210
0.0
220
0.0
230
1.0
100
AcDbArc
 50
269.423085
 51
293.126967
  0
ARC
  5
1EC
100
AcDbEntity
  8
1
  6
SOLID
 62
     0
100
AcDbCircle
 10
0.685356
 20
0.950192
 30
0.0
 40
0.063322
210
0.0
220
0.0
230
1.0
100
AcDbArc
 50
267.323239
 51
300.854697
  0
ARC
  5
1ED
100
AcDbEntity
  8
1
  6
SOLID
 62
     0
100
AcDbCircle
 10
0.618313
 20
0.994335
 30
0.0
 40
0.125064
210
0.0
220
0.0
230
1.0
100
AcDbArc
 50
271.031622
 51
300.825355
  0
ARC
  5
1EE
100
AcDbEntity
  8
1
  6
SOLID
 62
     0
100
AcDbCircle
 10
0.7551
 20
0.380397
 30
0.0
 40
0.507067
210
0.0
220
0.0
230
1.0
100
AcDbArc
 50
105.385939
 51
123.088188
  0
ARC
  5
1EF
100
AcDbEntity
  8
1
  6
SOLID
 62
     0
100
AcDbCircle
 10
0.438654
 20
0.902692
 30
0.0
 40
0.105205
210
0.0
220
0.0
230
1.0
100
AcDbArc
 50
277.067433
 51
292.125087
  0
LINE
  5
1F0
100
AcDbEntity
  8
1
  6
SOLID
 62
     0
100
AcDbLine
 10
0.451598
 20
0.798286
 30
0.0
 11
0.4327
 21
0.783001
 31
0.0
  0
ARC
  5
1F1
100
AcDbEntity
  8
1
  6
SOLID
 62
     0
100
AcDbCircle
 10
0.634742
 20
0.300908
 30
0.0
 40
0.522719
210
0.0
220
0.0
230
1.0
100
AcDbArc
 50
112.738235
 51
127.749389
  0
ARC
  5
1F2
100
AcDbEntity
  8
1
  6
SOLID
 62
     0
100
AcDbCircle
 10
0.249461
 20
0.804972
 30
0.0
 40
0.111785
210
0.0
220
0.0
230
1.0
100
AcDbArc
 50
248.619203
 51
305.72342
  0
ARC
  5
1F3
100
AcDbEntity
  8
1
  6
SOLID
 62
     0
100
AcDbCircle
 10
0.078755
 20
-1.316039
 30
0.0
 40
2.021101
210
0.0
220
0.0
230
1.0
100
AcDbArc
 50
86.313442
 51
90.704225
  0
LINE
  5
1F4
100
AcDbEntity
  8
1
  6
SOLID
 62
     0
100
AcDbLine
 10
0.053914
 20
0.704909
 30
0.0
 11
0.046827
 21
0.703103
 31
0.0
  0
LINE
  5
1F5
100
AcDbEntity
  8
1
  6
SOLID
 62
     0
100
AcDbLine
 10
0.046827
 20
0.703103
 30
0.0
 11
-0.167855
 21
0.701575
 31
0.0
  0
ARC
  5
1F6
100
AcDbEntity
  8
1
  6
SOLID
 62
     0
100
AcDbCircle
 10
-0.168916
 20
0.618907
 30
0.0
 40
0.082674
210
0.0
220
0.0
230
1.0
100
AcDbArc
 50
89.26491
 51
114.144103
  0
ARC
  5
1F7
100
AcDbEntity
  8
1
  6
SOLID
 62
     0
100
AcDbCircle
 10
-0.221265
 20
0.646563
 30
0.0
 40
0.051253
210
0.0
220
0.0
230
1.0
100
AcDbArc
 50
68.802251
 51
111.24003
  0
ARC
  5
1F8
100
AcDbEntity
  8
1
  6
SOLID
 62
     0
100
AcDbCircle
 10
-0.251896
 20
0.76431
 30
0.0
 40
0.070994
210
0.0
220
0.0
230
1.0
100
AcDbArc
 50
238.469734
 51
279.783099
  0
ARC
  5
1F9
100
AcDbEntity
  8
1
  6
SOLID
 62
     0
100
AcDbCircle
 10
-0.482689
 20
0.529105
 30
0.0
 40
0.260815
210
0.0
220
0.0
230
1.0
100
AcDbArc
 50
42.05134
 51
60.65848
  0
ARC
  5
1FA
100
AcDbEntity
  8
1
  6
SOLID
 62
     0
100
AcDbCircle
 10
-0.444262
 20
0.685367
 30
0.0
 40
0.114203
210
0.0
220
0.0
230
1.0
100
AcDbArc
 50
38.500554
 51
64.470938
  0
LINE
  5
1FB
100
AcDbEntity
  8
1
  6
SOLID
 62
     0
100
AcDbLine
 10
-0.395044
 20
0.78842
 30
0.0
 11
-0.416165
 21
0.807457
 31
0.0
  0
ARC
  5
1FC
100
AcDbEntity
  8
1
  6
SOLID
 62
     0
100
AcDbCircle
 10
-0.488188
 20
1.067039
 30
0.0
 40
0.205164
210
0.0
220
0.0
230
1.0
100
AcDbArc
 50
244.5421
 51
256.739817
  0
ARC
  5
1FD
100
AcDbEntity
  8
1
  6
SOLID
 62
     0
100
AcDbCircle
 10
-0.660979
 20
0.976192
 30
0.0
 40
0.070361
210
0.0
220
0.0
230
1.0
100
AcDbArc
 50
241.816909
 51
270.661928
  0
ARC
  5
1FE
100
AcDbEntity
  8
1
  6
SOLID
 62
     0
100
AcDbCircle
 10
-0.702225
 20
0.995705
 30
0.0
 40
0.081925
210
0.0
220
0.0
230
1.0
100
AcDbArc
 50
241.831935
 51
275.614116
  0
LINE
  5
1FF
100
AcDbEntity
  8
1
  6
SOLID
 62
     0
100
AcDbLine
 10
-0.811347
 20
0.925012
 30
0.0
 11
-0.818434
 21
0.923622
 31
0.0
  0
ARC
  5
200
100
AcDbEntity
  8
1
  6
SOLID
 62
     0
100
AcDbCircle
 10
-1.980031
 20
0.641946
 30
0.0
 40
0.768472
210
0.0
220
0.0
230
1.0
100
AcDbArc
 50
160.257698
 51
170.485917
  0
ARC
  5
201
100
AcDbEntity
  8
1
  6
SOLID
 62
     0
100
AcDbCircle
 10
-2.816071
 20
0.762572
 30
0.0
 40
0.078399
210
0.0
220
0.0
230
1.0
100
AcDbArc
 50
-28.819128
 51
4.678726
  0
ARC
  5
202
100
AcDbEntity
  8
1
  6
SOLID
 62
     0
100
AcDbCircle
 10
-2.800449
 20
0.720991
 30
0.0
 40
0.053202
210
0.0
220
0.0
230
1.0
100
AcDbArc
 50
-32.502838
 51
4.083654
  0
ARC
  5
203
100
AcDbEntity
  8
1
  6
SOLID
 62
     0
100
AcDbCircle
 10
-2.827909
 20
0.683663
 30
0.0
 40
0.072855
210
0.0
220
0.0
230
1.0
100
AcDbArc
 50
-30.118256
 51
6.890595
  0
ARC
  5
204
100
AcDbEntity
  8
1
  6
SOLID
 62
     0
100
AcDbCircle
 10
-2.836155
 20
0.646294
 30
0.0
 40
0.07127
210
0.0
220
0.0
230
1.0
100
AcDbArc
 50
-28.936523
 51
0.651921
  0
ARC
  5
205
100
AcDbEntity
  8
1
  6
SOLID
 62
     0
100
AcDbCircle
 10
-2.832097
 20
0.607542
 30
0.0
 40
0.05847
210
0.0
220
0.0
230
1.0
100
AcDbArc
 50
-32.046936
 51
4.186849
  0
ARC
  5
206
100
AcDbEntity
  8
1
  6
SOLID
 62
     0
100
AcDbCircle
 10
-2.869625
 20
0.578213
 30
0.0
 40
0.087105
210
0.0
220
0.0
230
1.0
100
AcDbArc
 50
333.6526
 51
358.883902
  0
ARC
  5
207
100
AcDbEntity
  8
1
  6
SOLID
 62
     0
100
AcDbCircle
 10
-2.82956
 20
0.53449
 30
0.0
 40
0.038327
210
0.0
220
0.0
230
1.0
100
AcDbArc
 50
-34.831743
 51
7.594762
  0
LINE
  5
208
100
AcDbEntity
  8
1
  6
SOLID
 62
     0
100
AcDbLine
 10
-2.7981
 20
0.512598
 30
0.0
 11
-2.7981
 21
0.507596
 31
0.0
  0
ARC
  5
209
100
AcDbEntity
  8
1
  6
SOLID
 62
     0
100
AcDbCircle
 10
-2.780721
 20
0.528157
 30
0.0
 40
0.026922
210
0.0
220
0.0
230
1.0
100
AcDbArc
 50
229.79401
 51
258.667689
  0
LINE
  5
20A
100
AcDbEntity
  8
1
  6
SOLID
 62
     0
100
AcDbLine
 10
-2.583973
 20
0.491478
 30
0.0
 11
-2.579804
 21
0.486614
 31
0.0
  0
ARC
  5
20B
100
AcDbEntity
  8
1
  6
SOLID
 62
     0
100
AcDbCircle
 10
-2.640191
 20
0.484382
 30
0.0
 40
0.060428
210
0.0
220
0.0
230
1.0
100
AcDbArc
 50
-31.30089
 51
2.117201
  0
ARC
  5
20C
100
AcDbEntity
  8
1
  6
SOLID
 62
     0
100
AcDbCircle
 10
-2.64476
 20
0.448195
 30
0.0
 40
0.056406
210
0.0
220
0.0
230
1.0
100
AcDbArc
 50
-32.734545
 51
4.874355
  0
ARC
  5
20D
100
AcDbEntity
  8
1
  6
SOLID
 62
     0
100
AcDbCircle
 10
-2.652066
 20
0.413788
 30
0.0
 40
0.054893
210
0.0
220
0.0
230
1.0
100
AcDbArc
 50
-32.265395
 51
4.0802
  0
ARC
  5
20E
100
AcDbEntity
  8
1
  6
SOLID
 62
     0
100
AcDbCircle
 10
-2.669326
 20
0.380619
 30
0.0
 40
0.063793
210
0.0
220
0.0
230
1.0
100
AcDbArc
 50
-31.545383
 51
3.472938
  0
ARC
  5
20F
100
AcDbEntity
  8
1
  6
SOLID
 62
     0
100
AcDbCircle
 10
-2.702009
 20
0.348786
 30
0.0
 40
0.087064
210
0.0
220
0.0
230
1.0
100
AcDbArc
 50
333.650496
 51
358.985099
  0
ARC
  5
210
100
AcDbEntity
  8
1
  6
SOLID
 62
     0
100
AcDbCircle
 10
-2.682554
 20
0.306107
 30
0.0
 40
0.058702
210
0.0
220
0.0
230
1.0
100
AcDbArc
 50
-31.693244
 51
3.943374
  0
ARC
  5
211
100
AcDbEntity
  8
1
  6
SOLID
 62
     0
100
AcDbCircle
 10
-2.69284
 20
0.26639
 30
0.0
 40
0.060884
210
0.0
220
0.0
230
1.0
100
AcDbArc
 50
-31.528362
 51
8.38265
  0
ARC
  5
212
100
AcDbEntity
  8
1
  6
SOLID
 62
     0
100
AcDbCircle
 10
-2.706461
 20
0.231149
 30
0.0
 40
0.065606
210
0.0
220
0.0
230
1.0
100
AcDbArc
 50
-31.046723
 51
2.974009
  0
ARC
  5
213
100
AcDbEntity
  8
1
  6
SOLID
 62
     0
100
AcDbCircle
 10
-2.691887
 20
0.191644
 30
0.0
 40
0.042018
210
0.0
220
0.0
230
1.0
100
AcDbArc
 50
-34.022966
 51
7.754993
  0
ARC
  5
214
100
AcDbEntity
  8
1
  6
SOLID
 62
     0
100
AcDbCircle
 10
-2.610577
 20
0.150813
 30
0.0
 40
0.049607
210
0.0
220
0.0
230
1.0
100
AcDbArc
 50
159.564257
 51
185.198568
  0
ARC
  5
215
100
AcDbEntity
  8
1
  6
SOLID
 62
     0
100
AcDbCircle
 10
-2.61391
 20
0.116941
 30
0.0
 40
0.054639
210
0.0
220
0.0
230
1.0
100
AcDbArc
 50
147.476352
 51
187.832972
  0
ARC
  5
216
100
AcDbEntity
  8
1
  6
SOLID
 62
     0
100
AcDbCircle
 10
-2.744358
 20
0.117512
 30
0.0
 40
0.076738
210
0.0
220
0.0
230
1.0
100
AcDbArc
 50
331.478742
 51
354.003322
  0
ARC
  5
217
100
AcDbEntity
  8
1
  6
SOLID
 62
     0
100
AcDbCircle
 10
-2.730047
 20
0.076562
 30
0.0
 40
0.053289
210
0.0
220
0.0
230
1.0
100
AcDbArc
 50
-33.378278
 51
4.638527
  0
ARC
  5
218
100
AcDbEntity
  8
1
  6
SOLID
 62
     0
100
AcDbCircle
 10
-2.7512
 20
0.043703
 30
0.0
 40
0.065748
210
0.0
220
0.0
230
1.0
100
AcDbArc
 50
-30.551154
 51
3.087623
  0
ARC
  5
219
100
AcDbEntity
  8
1
  6
SOLID
 62
     0
100
AcDbCircle
 10
-2.747108
 20
0.005944
 30
0.0
 40
0.052707
210
0.0
220
0.0
230
1.0
100
AcDbArc
 50
-33.575915
 51
4.721612
  0
ARC
  5
21A
100
AcDbEntity
  8
1
  6
SOLID
 62
     0
100
AcDbCircle
 10
-2.761508
 20
-0.027474
 30
0.0
 40
0.058469
210
0.0
220
0.0
230
1.0
100
AcDbArc
 50
-32.047182
 51
4.187176
  0
ARC
  5
21B
100
AcDbEntity
  8
1
  6
SOLID
 62
     0
100
AcDbCircle
 10
-2.769238
 20
-0.062831
 30
0.0
 40
0.057453
210
0.0
220
0.0
230
1.0
100
AcDbArc
 50
-32.609171
 51
4.324452
  0
ARC
  5
21C
100
AcDbEntity
  8
1
  6
SOLID
 62
     0
100
AcDbCircle
 10
-2.762477
 20
-0.099463
 30
0.0
 40
0.04202
210
0.0
220
0.0
230
1.0
100
AcDbArc
 50
-34.022255
 51
7.754334
  0
ARC
  5
21D
100
AcDbEntity
  8
1
  6
SOLID
 62
     0
100
AcDbCircle
 10
-2.594815
 20
-0.151028
 30
0.0
 40
0.135766
210
0.0
220
0.0
230
1.0
100
AcDbArc
 50
168.074563
 51
180.767715
  0
ARC
  5
21E
100
AcDbEntity
  8
1
  6
SOLID
 62
     0
100
AcDbCircle
 10
-2.798032
 20
-0.138438
 30
0.0
 40
0.068986
210
0.0
220
0.0
230
1.0
100
AcDbArc
 50
329.669425
 51
347.942295
  0
ARC
  5
21F
100
AcDbEntity
  8
1
  6
SOLID
 62
     0
100
AcDbCircle
 10
-2.805509
 20
-0.1767
 30
0.0
 40
0.067108
210
0.0
220
0.0
230
1.0
100
AcDbArc
 50
-29.982552
 51
2.925965
  0
ARC
  5
220
100
AcDbEntity
  8
1
  6
SOLID
 62
     0
100
AcDbCircle
 10
-2.801577
 20
-0.213957
 30
0.0
 40
0.054323
210
0.0
220
0.0
230
1.0
100
AcDbArc
 50
-33.227386
 51
3.927501
  0
ARC
  5
221
100
AcDbEntity
  8
1
  6
SOLID
 62
     0
100
AcDbCircle
 10
-2.789939
 20
-0.249716
 30
0.0
 40
0.03433
210
0.0
220
0.0
230
1.0
100
AcDbArc
 50
-42.802847
 51
10.053067
  0
ARC
  5
222
100
AcDbEntity
  8
1
  6
SOLID
 62
     0
100
AcDbCircle
 10
-2.881054
 20
1.521839
 30
0.0
 40
1.798646
210
0.0
220
0.0
230
1.0
100
AcDbArc
 50
268.242447
 51
273.707427
  0
ARC
  5
223
100
AcDbEntity
  8
1
  6
SOLID
 62
     0
100
AcDbCircle
 10
-2.92949
 20
-0.561587
 30
0.0
 40
0.285705
210
0.0
220
0.0
230
1.0
100
AcDbArc
 50
91.349682
 51
101.400643
  0
ARC
  5
224
100
AcDbEntity
  8
1
  6
SOLID
 62
     0
100
AcDbCircle
 10
-2.982062
 20
-0.293925
 30
0.0
 40
0.013005
210
0.0
220
0.0
230
1.0
100
AcDbArc
 50
107.458854
 51
197.867479
  0
ARC
  5
225
100
AcDbEntity
  8
1
  6
SOLID
 62
     0
100
AcDbCircle
 10
-3.047467
 20
-0.302608
 30
0.0
 40
0.053234
210
0.0
220
0.0
230
1.0
100
AcDbArc
 50
-33.459801
 51
5.057569
  0
ARC
  5
226
100
AcDbEntity
  8
1
  6
SOLID
 62
     0
100
AcDbCircle
 10
-3.053845
 20
-0.33686
 30
0.0
 40
0.051026
210
0.0
220
0.0
230
1.0
100
AcDbArc
 50
-33.696836
 51
5.511711
  0
ARC
  5
227
100
AcDbEntity
  8
1
  6
SOLID
 62
     0
100
AcDbCircle
 10
-3.075799
 20
-0.368976
 30
0.0
 40
0.064519
210
0.0
220
0.0
230
1.0
100
AcDbArc
 50
-31.354876
 51
3.382462
  0
ARC
  5
228
100
AcDbEntity
  8
1
  6
SOLID
 62
     0
100
AcDbCircle
 10
-3.107794
 20
-0.40085
 30
0.0
 40
0.087108
210
0.0
220
0.0
230
1.0
100
AcDbArc
 50
333.653091
 51
358.883383
  0
ARC
  5
229
100
AcDbEntity
  8
1
  6
SOLID
 62
     0
100
AcDbCircle
 10
-3.082848
 20
-0.443818
 30
0.0
 40
0.053288
210
0.0
220
0.0
230
1.0
100
AcDbArc
 50
-33.378523
 51
4.63857
  0
ARC
  5
22A
100
AcDbEntity
  8
1
  6
SOLID
 62
     0
100
AcDbCircle
 10
-3.079877
 20
-0.478718
 30
0.0
 40
0.041901
210
0.0
220
0.0
230
1.0
100
AcDbArc
 50
-34.04605
 51
7.656578
  0
ARC
  5
22B
100
AcDbEntity
  8
1
  6
SOLID
 62
     0
100
AcDbCircle
 10
-2.964794
 20
-0.525106
 30
0.0
 40
0.083572
210
0.0
220
0.0
230
1.0
100
AcDbArc
 50
164.075583
 51
184.767187
  0
ARC
  5
22C
100
AcDbEntity
  8
1
  6
SOLID
 62
     0
100
AcDbCircle
 10
-3.115541
 20
-0.51764
 30
0.0
 40
0.068987
210
0.0
220
0.0
230
1.0
100
AcDbArc
 50
329.669534
 51
347.942049
  0
ARC
  5
22D
100
AcDbEntity
  8
1
  6
SOLID
 62
     0
100
AcDbCircle
 10
-3.120955
 20
-0.556189
 30
0.0
 40
0.065064
210
0.0
220
0.0
230
1.0
100
AcDbArc
 50
-30.733274
 51
3.269921
  0
ARC
  5
22E
100
AcDbEntity
  8
1
  6
SOLID
 62
     0
100
AcDbCircle
 10
-3.118142
 20
-0.593748
 30
0.0
 40
0.053288
210
0.0
220
0.0
230
1.0
100
AcDbArc
 50
-33.378496
 51
4.638317
  0
ARC
  5
22F
100
AcDbEntity
  8
1
  6
SOLID
 62
     0
100
AcDbCircle
 10
-3.136423
 20
-0.626037
 30
0.0
 40
0.062849
210
0.0
220
0.0
230
1.0
100
AcDbArc
 50
-27.609526
 51
2.709711
  0
ARC
  5
230
100
AcDbEntity
  8
1
  6
SOLID
 62
     0
100
AcDbCircle
 10
-3.070651
 20
-0.652154
 30
0.0
 40
0.010519
210
0.0
220
0.0
230
1.0
100
AcDbArc
 50
196.627131
 51
283.336635
  0
LINE
  5
231
100
AcDbEntity
  8
1
  6
SOLID
 62
     0
100
AcDbLine
 10
-3.068225
 20
-0.66239
 30
0.0
 11
-1.939786
 21
-0.66239
 31
0.0
  0
ARC
  5
232
100
AcDbEntity
  8
1
  6
SOLID
 62
     0
100
AcDbCircle
 10
-1.942877
 20
-0.641119
 30
0.0
 40
0.021494
210
0.0
220
0.0
230
1.0
100
AcDbArc
 50
278.267671
 51
352.168741
  0
LINE
  5
233
100
AcDbEntity
  8
1
  6
SOLID
 62
     0
100
AcDbLine
 10
-1.921583
 20
-0.644048
 30
0.0
 11
-1.839601
 21
-0.315284
 31
0.0
  0
ARC
  5
234
100
AcDbEntity
  8
1
  6
SOLID
 62
     0
100
AcDbCircle
 10
-1.771931
 20
-0.307974
 30
0.0
 40
0.068064
210
0.0
220
0.0
230
1.0
100
AcDbArc
 50
149.257764
 51
186.165548
  0
ARC
  5
235
100
AcDbEntity
  8
1
  6
SOLID
 62
     0
100
AcDbCircle
 10
-1.846369
 20
-0.269742
 30
0.0
 40
0.016307
210
0.0
220
0.0
230
1.0
100
AcDbArc
 50
347.821072
 51
404.492665
  0
LINE
  5
236
100
AcDbEntity
  8
1
  6
SOLID
 62
     0
100
AcDbLine
 10
-1.834737
 20
-0.258314
 30
0.0
 11
-2.008707
 21
-0.258314
 31
0.0
  0
LINE
  5
237
100
AcDbEntity
  8
1
  6
SOLID
 62
     0
100
AcDbLine
 10
-2.008707
 20
-0.258314
 30
0.0
 11
-2.048447
 21
-0.25484
 31
0.0
  0
LINE
  5
238
100
AcDbEntity
  8
1
  6
SOLID
 62
     0
100
AcDbLine
 10
-2.048447
 20
-0.25484
 30
0.0
 11
-2.062065
 21
-0.252061
 31
0.0
  0
LINE
  5
239
100
AcDbEntity
  8
1
  6
SOLID
 62
     0
100
AcDbLine
 10
-2.062065
 20
-0.252061
 30
0.0
 11
-2.066094
 21
-0.248587
 31
0.0
  0
ARC
  5
23A
100
AcDbEntity
  8
1
  6
SOLID
 62
     0
100
AcDbCircle
 10
-2.112209
 20
-0.222533
 30
0.0
 40
0.052966
210
0.0
220
0.0
230
1.0
100
AcDbArc
 50
330.534547
 51
364.74037
  0
ARC
  5
23B
100
AcDbEntity
  8
1
  6
SOLID
 62
     0
100
AcDbCircle
 10
-1.999846
 20
-0.225042
 30
0.0
 40
0.059975
210
0.0
220
0.0
230
1.0
100
AcDbArc
 50
148.183853
 51
173.407834
  0
ARC
  5
23C
100
AcDbEntity
  8
1
  6
SOLID
 62
     0
100
AcDbCircle
 10
-2.00002
 20
-0.188522
 30
0.0
 40
0.051026
210
0.0
220
0.0
230
1.0
100
AcDbArc
 50
146.30327
 51
185.511708
  0
ARC
  5
23D
100
AcDbEntity
  8
1
  6
SOLID
 62
     0
100
AcDbCircle
 10
-1.978066
 20
-0.156406
 30
0.0
 40
0.064519
210
0.0
220
0.0
230
1.0
100
AcDbArc
 50
148.645123
 51
183.382684
  0
ARC
  5
23E
100
AcDbEntity
  8
1
  6
SOLID
 62
     0
100
AcDbCircle
 10
-1.96699
 20
-0.121394
 30
0.0
 40
0.066188
210
0.0
220
0.0
230
1.0
100
AcDbArc
 50
150.903566
 51
181.246938
  0
LINE
  5
23F
100
AcDbEntity
  8
1
  6
SOLID
 62
     0
100
AcDbLine
 10
-2.024825
 20
-0.089208
 30
0.0
 11
-2.024131
 21
-0.076424
 31
0.0
  0
ARC
  5
240
100
AcDbEntity
  8
1
  6
SOLID
 62
     0
100
AcDbCircle
 10
-1.704924
 20
-7.633143
 30
0.0
 40
7.563458
210
0.0
220
0.0
230
1.0
100
AcDbArc
 50
88.822277
 51
92.418818
  0
ARC
  5
241
100
AcDbEntity
  8
1
  6
SOLID
 62
     0
100
AcDbCircle
 10
-1.543042
 20
0.136576
 30
0.0
 40
0.207958
210
0.0
220
0.0
230
1.0
100
AcDbArc
 50
268.229588
 51
279.995364
  0
ARC
  5
242
100
AcDbEntity
  8
1
  6
SOLID
 62
     0
100
AcDbCircle
 10
-2.140078
 20
0.155293
 30
0.0
 40
0.671428
210
0.0
220
0.0
230
1.0
100
AcDbArc
 50
340.555063
 51
346.907285
  0
ARC
  5
243
100
AcDbEntity
  8
1
  6
SOLID
 62
     0
100
AcDbCircle
 10
-1.733803
 20
0.100386
 30
0.0
 40
0.266084
210
0.0
220
0.0
230
1.0
100
AcDbArc
 50
338.576439
 51
358.969427
  0
ARC
  5
244
100
AcDbEntity
  8
1
  6
SOLID
 62
     0
100
AcDbCircle
 10
-1.502948
 20
0.121179
 30
0.0
 40
0.043501
210
0.0
220
0.0
230
1.0
100
AcDbArc
 50
323.983985
 51
366.218327
  0
ARC
  5
245
100
AcDbEntity
  8
1
  6
SOLID
 62
     0
100
AcDbCircle
 10
-1.402046
 20
0.117831
 30
0.0
 40
0.058217
210
0.0
220
0.0
230
1.0
100
AcDbArc
 50
148.162297
 51
172.041059
  0
ARC
  5
246
100
AcDbEntity
  8
1
  6
SOLID
 62
     0
100
AcDbCircle
 10
-1.389616
 20
0.152546
 30
0.0
 40
0.062018
210
0.0
220
0.0
230
1.0
100
AcDbArc
 50
148.954463
 51
183.702787
  0
ARC
  5
247
100
AcDbEntity
  8
1
  6
SOLID
 62
     0
100
AcDbCircle
 10
-1.376531
 20
0.193535
 30
0.0
 40
0.066829
210
0.0
220
0.0
230
1.0
100
AcDbArc
 50
149.071559
 51
187.744429
  0
LINE
  5
248
100
AcDbEntity
  8
1
  6
SOLID
 62
     0
100
AcDbLine
 10
-1.822232
 20
0.315007
 30
0.0
 11
-1.913107
 21
0.318342
 31
0.0
  0
LINE
  5
249
100
AcDbEntity
  8
1
  6
SOLID
 62
     0
100
AcDbLine
 10
-1.913107
 20
0.318342
 30
0.0
 11
-1.943955
 21
0.320982
 31
0.0
  0
LINE
  5
24A
100
AcDbEntity
  8
1
  6
SOLID
 62
     0
100
AcDbLine
 10
-1.943955
 20
0.320982
 30
0.0
 11
-1.952292
 21
0.324316
 31
0.0
  0
LINE
  5
24B
100
AcDbEntity
  8
1
  6
SOLID
 62
     0
100
AcDbLine
 10
-1.952292
 20
0.324316
 30
0.0
 11
-1.945344
 21
0.335433
 31
0.0
  0
ARC
  5
24C
100
AcDbEntity
  8
1
  6
SOLID
 62
     0
100
AcDbCircle
 10
-1.881401
 20
0.338045
 30
0.0
 40
0.063996
210
0.0
220
0.0
230
1.0
100
AcDbArc
 50
148.855247
 51
182.339085
  0
ARC
  5
24D
100
AcDbEntity
  8
1
  6
SOLID
 62
     0
100
AcDbCircle
 10
-1.878995
 20
0.375382
 30
0.0
 40
0.057335
210
0.0
220
0.0
230
1.0
100
AcDbArc
 50
147.368711
 51
184.239094
  0
ARC
  5
24E
100
AcDbEntity
  8
1
  6
SOLID
 62
     0
100
AcDbCircle
 10
-1.757666
 20
-1.787251
 30
0.0
 40
2.289196
210
0.0
220
0.0
230
1.0
100
AcDbArc
 50
87.782879
 51
93.590271
  0
ARC
  5
24F
100
AcDbEntity
  8
1
  6
SOLID
 62
     0
100
AcDbCircle
 10
-1.670455
 20
0.127447
 30
0.0
 40
0.372787
210
0.0
220
0.0
230
1.0
100
AcDbArc
 50
78.808352
 51
89.792563
  0
LINE
  5
250
100
AcDbEntity
  8
1
  6
SOLID
 62
     0
100
AcDbLine
 10
-1.5981
 20
0.493145
 30
0.0
 11
-1.591986
 21
0.489254
 31
0.0
  0
ARC
  5
251
100
AcDbEntity
  8
1
  6
SOLID
 62
     0
100
AcDbCircle
 10
-1.6851
 20
0.476488
 30
0.0
 40
0.093985
210
0.0
220
0.0
230
1.0
100
AcDbArc
 50
-25.964297
 51
7.806678
  0
ARC
  5
252
100
AcDbEntity
  8
1
  6
SOLID
 62
     0
100
AcDbCircle
 10
-1.65603
 20
0.430993
 30
0.0
 40
0.055599
210
0.0
220
0.0
230
1.0
100
AcDbArc
 50
-32.114582
 51
4.484846
  0
ARC
  5
253
100
AcDbEntity
  8
1
  6
SOLID
 62
     0
100
AcDbCircle
 10
-1.582681
 20
0.39088
 30
0.0
 40
0.028299
210
0.0
220
0.0
230
1.0
100
AcDbArc
 50
158.098648
 51
224.217591
  0
LINE
  5
254
100
AcDbEntity
  8
1
  6
SOLID
 62
     0
100
AcDbLine
 10
-1.602964
 20
0.371144
 30
0.0
 11
-1.58754
 21
0.367948
 31
0.0
  0
LINE
  5
255
100
AcDbEntity
  8
1
  6
SOLID
 62
     0
100
AcDbLine
 10
-1.58754
 20
0.367948
 30
0.0
 11
-1.182769
 21
0.367948
 31
0.0
  0
LINE
  5
256
100
AcDbEntity
  8
1
  6
SOLID
 62
     0
100
AcDbLine
 10
-1.182769
 20
0.367948
 30
0.0
 11
-1.092311
 21
0.371144
 31
0.0
  0
LINE
  5
257
100
AcDbEntity
  8
1
  6
SOLID
 62
     0
100
AcDbLine
 10
-1.092311
 20
0.371144
 30
0.0
 11
-1.059935
 21
0.373645
 31
0.0
  0
LINE
  5
258
100
AcDbEntity
  8
1
  6
SOLID
 62
     0
100
AcDbLine
 10
-1.059935
 20
0.373645
 30
0.0
 11
-1.048262
 21
0.376841
 31
0.0
  0
LINE
  5
259
100
AcDbEntity
  8
1
  6
SOLID
 62
     0
100
AcDbLine
 10
-1.048262
 20
0.376841
 30
0.0
 11
-1.046734
 21
0.388791
 31
0.0
  0
ARC
  5
25A
100
AcDbEntity
  8
1
  6
SOLID
 62
     0
100
AcDbCircle
 10
-0.888044
 20
0.44333
 30
0.0
 40
0.1678
210
0.0
220
0.0
230
1.0
100
AcDbArc
 50
171.403833
 51
198.967017
  0
ARC
  5
25B
100
AcDbEntity
  8
1
  6
SOLID
 62
     0
100
AcDbCircle
 10
-1.006052
 20
0.490552
 30
0.0
 40
0.052777
210
0.0
220
0.0
230
1.0
100
AcDbArc
 50
157.449237
 51
204.804561
  0
LINE
  5
25C
100
AcDbEntity
  8
1
  6
SOLID
 62
     0
100
AcDbLine
 10
-1.054793
 20
0.510792
 30
0.0
 11
-1.05396
 21
0.516211
 31
0.0
  0
ARC
  5
25D
100
AcDbEntity
  8
1
  6
SOLID
 62
     0
100
AcDbCircle
 10
-0.650522
 20
0.548379
 30
0.0
 40
0.404718
210
0.0
220
0.0
230
1.0
100
AcDbArc
 50
171.878012
 51
184.558787
  0
ARC
  5
25E
100
AcDbEntity
  8
1
  6
SOLID
 62
     0
100
AcDbCircle
 10
-1.102139
 20
0.633897
 30
0.0
 40
0.058309
210
0.0
220
0.0
230
1.0
100
AcDbArc
 50
330.920425
 51
367.813716
  0
ARC
  5
25F
100
AcDbEntity
  8
1
  6
SOLID
 62
     0
100
AcDbCircle
 10
-0.826451
 20
0.824257
 30
0.0
 40
0.096164
210
0.0
220
0.0
230
1.0
100
AcDbArc
 50
116.361961
 51
148.062792
  0
LINE
  5
260
100
AcDbEntity
  8
1
  6
SOLID
 62
     0
100
AcDbLine
 10
-2.517136
 20
0.914868
 30
0.0
 11
-2.701388
 21
0.908059
 31
0.0
  0
LINE
  5
261
100
AcDbEntity
  8
1
  6
SOLID
 62
     0
100
AcDbLine
 10
-2.701388
 20
0.908059
 30
0.0
 11
-2.703334
 21
0.901528
 31
0.0
  0
ARC
  5
262
100
AcDbEntity
  8
1
  6
SOLID
 62
     0
100
AcDbCircle
 10
-0.737694
 20
0.711041
 30
0.0
 40
0.126059
210
0.0
220
0.0
230
1.0
100
AcDbArc
 50
66.486526
 51
99.456816
  0
LINE
  5
263
100
AcDbEntity
  8
1
  6
SOLID
 62
     0
100
AcDbLine
 10
-0.687401
 20
0.826632
 30
0.0
 11
-0.666697
 21
0.824409
 31
0.0
  0
ARC
  5
264
100
AcDbEntity
  8
1
  6
SOLID
 62
     0
100
AcDbCircle
 10
-0.945805
 20
0.124412
 30
0.0
 40
0.75359
210
0.0
220
0.0
230
1.0
100
AcDbArc
 50
52.258177
 51
68.261484
  0
ARC
  5
265
100
AcDbEntity
  8
1
  6
SOLID
 62
     0
100
AcDbCircle
 10
-1.189521
 20
-0.251838
 30
0.0
 40
1.200887
210
0.0
220
0.0
230
1.0
100
AcDbArc
 50
44.675615
 51
54.051426
  0
ARC
  5
266
100
AcDbEntity
  8
1
  6
SOLID
 62
     0
100
AcDbCircle
 10
-0.324569
 20
0.611065
 30
0.0
 40
0.021584
210
0.0
220
0.0
230
1.0
100
AcDbArc
 50
239.35286
 51
312.44018
  0
ARC
  5
267
100
AcDbEntity
  8
1
  6
SOLID
 62
     0
100
AcDbCircle
 10
-0.268527
 20
0.392622
 30
0.0
 40
0.206719
210
0.0
220
0.0
230
1.0
100
AcDbArc
 50
81.787837
 51
101.574796
  0
ARC
  5
268
100
AcDbEntity
  8
1
  6
SOLID
 62
     0
100
AcDbCircle
 10
-0.254835
 20
0.750124
 30
0.0
 40
0.15372
210
0.0
220
0.0
230
1.0
100
AcDbArc
 50
275.913059
 51
290.474732
  0
LINE
  5
269
100
AcDbEntity
  8
1
  6
SOLID
 62
     0
100
AcDbLine
 10
-0.201065
 20
0.606114
 30
0.0
 11
-0.122001
 21
0.607503
 31
0.0
  0
LINE
  5
26A
100
AcDbEntity
  8
1
  6
SOLID
 62
     0
100
AcDbLine
 10
-0.122001
 20
0.607503
 30
0.0
 11
-0.101019
 21
0.614729
 31
0.0
  0
LINE
  5
26B
100
AcDbEntity
  8
1
  6
SOLID
 62
     0
100
AcDbLine
 10
-0.101019
 20
0.614729
 30
0.0
 11
0.052941
 21
0.613339
 31
0.0
  0
LINE
  5
26C
100
AcDbEntity
  8
1
  6
SOLID
 62
     0
100
AcDbLine
 10
0.052941
 20
0.613339
 30
0.0
 11
0.069755
 21
0.61056
 31
0.0
  0
LINE
  5
26D
100
AcDbEntity
  8
1
  6
SOLID
 62
     0
100
AcDbLine
 10
0.069755
 20
0.61056
 30
0.0
 11
0.082122
 21
0.606114
 31
0.0
  0
LINE
  5
26E
100
AcDbEntity
  8
1
  6
SOLID
 62
     0
100
AcDbLine
 10
0.082122
 20
0.606114
 30
0.0
 11
0.164382
 21
0.604585
 31
0.0
  0
LINE
  5
26F
100
AcDbEntity
  8
1
  6
SOLID
 62
     0
100
AcDbLine
 10
0.164382
 20
0.604585
 30
0.0
 11
0.175637
 21
0.601667
 31
0.0
  0
LINE
  5
270
100
AcDbEntity
  8
1
  6
SOLID
 62
     0
100
AcDbLine
 10
0.175637
 20
0.601667
 30
0.0
 11
0.188004
 21
0.597221
 31
0.0
  0
ARC
  5
271
100
AcDbEntity
  8
1
  6
SOLID
 62
     0
100
AcDbCircle
 10
0.215874
 20
0.405159
 30
0.0
 40
0.194073
210
0.0
220
0.0
230
1.0
100
AcDbArc
 50
78.207821
 51
98.25654
  0
ARC
  5
272
100
AcDbEntity
  8
1
  6
SOLID
 62
     0
100
AcDbCircle
 10
0.268168
 20
0.607857
 30
0.0
 40
0.017928
210
0.0
220
0.0
230
1.0
100
AcDbArc
 50
225.195845
 51
309.509674
  0
ARC
  5
273
100
AcDbEntity
  8
1
  6
SOLID
 62
     0
100
AcDbCircle
 10
1.35473
 20
-1.077684
 30
0.0
 40
1.987604
210
0.0
220
0.0
230
1.0
100
AcDbArc
 50
117.205217
 51
122.747023
  0
LINE
  5
274
100
AcDbEntity
  8
1
  6
SOLID
 62
     0
100
AcDbLine
 10
0.44604
 20
0.690042
 30
0.0
 11
0.497174
 21
0.719083
 31
0.0
  0
ARC
  5
275
100
AcDbEntity
  8
1
  6
SOLID
 62
     0
100
AcDbCircle
 10
1.163544
 20
-0.393296
 30
0.0
 40
1.296702
210
0.0
220
0.0
230
1.0
100
AcDbArc
 50
113.182658
 51
120.923704
  0
ARC
  5
276
100
AcDbEntity
  8
1
  6
SOLID
 62
     0
100
AcDbCircle
 10
0.593021
 20
1.101507
 30
0.0
 40
0.308702
210
0.0
220
0.0
230
1.0
100
AcDbArc
 50
281.218696
 51
296.153051
  0
ARC
  5
277
100
AcDbEntity
  8
1
  6
SOLID
 62
     0
100
AcDbCircle
 10
0.744423
 20
0.778151
 30
0.0
 40
0.048734
210
0.0
220
0.0
230
1.0
100
AcDbArc
 50
84.167748
 51
108.340946
  0
ARC
  5
278
100
AcDbEntity
  8
1
  6
SOLID
 62
     0
100
AcDbCircle
 10
0.743739
 20
0.865575
 30
0.0
 40
0.039348
210
0.0
220
0.0
230
1.0
100
AcDbArc
 50
278.235324
 51
304.54148
  0
ARC
  5
279
100
AcDbEntity
  8
1
  6
SOLID
 62
     0
100
AcDbCircle
 10
0.801087
 20
0.709769
 30
0.0
 40
0.128273
210
0.0
220
0.0
230
1.0
100
AcDbArc
 50
73.263201
 51
105.852093
  0
LINE
  5
27A
100
AcDbEntity
  8
1
  6
SOLID
 62
     0
100
AcDbLine
 10
0.838026
 20
0.832607
 30
0.0
 11
0.843446
 21
0.826772
 31
0.0
  0
ARC
  5
27B
100
AcDbEntity
  8
1
  6
SOLID
 62
     0
100
AcDbCircle
 10
0.745509
 20
0.765912
 30
0.0
 40
0.115307
210
0.0
220
0.0
230
1.0
100
AcDbArc
 50
-0.150664
 51
31.857607
  0
ARC
  5
27C
100
AcDbEntity
  8
1
  6
SOLID
 62
     0
100
AcDbCircle
 10
0.76989
 20
0.723916
 30
0.0
 40
0.100038
210
0.0
220
0.0
230
1.0
100
AcDbArc
 50
-25.398214
 51
24.64525
  0
ARC
  5
27D
100
AcDbEntity
  8
1
  6
SOLID
 62
     0
100
AcDbCircle
 10
0.795813
 20
0.672491
 30
0.0
 40
0.065006
210
0.0
220
0.0
230
1.0
100
AcDbArc
 50
-33.571027
 51
7.529653
  0
ARC
  5
27E
100
AcDbEntity
  8
1
  6
SOLID
 62
     0
100
AcDbCircle
 10
1.388089
 20
0.395878
 30
0.0
 40
0.589479
210
0.0
220
0.0
230
1.0
100
AcDbArc
 50
155.903712
 51
163.596756
  0
ARC
  5
27F
100
AcDbEntity
  8
1
  6
SOLID
 62
     0
100
AcDbCircle
 10
0.292162
 20
0.872078
 30
0.0
 40
0.61425
210
0.0
220
0.0
230
1.0
100
AcDbArc
 50
324.068533
 51
329.71853
  0
ARC
  5
280
100
AcDbEntity
  8
1
  6
SOLID
 62
     0
100
AcDbCircle
 10
0.632933
 20
0.556211
 30
0.0
 40
0.162822
210
0.0
220
0.0
230
1.0
100
AcDbArc
 50
319.122192
 51
344.107744
  0
ARC
  5
281
100
AcDbEntity
  8
1
  6
SOLID
 62
     0
100
AcDbCircle
 10
-0.074787
 20
0.925183
 30
0.0
 40
0.957293
210
0.0
220
0.0
230
1.0
100
AcDbArc
 50
323.196127
 51
330.215112
  0
ARC
  5
282
100
AcDbEntity
  8
1
  6
SOLID
 62
     0
100
AcDbCircle
 10
0.710222
 20
0.338294
 30
0.0
 40
0.022852
210
0.0
220
0.0
230
1.0
100
AcDbArc
 50
144.109615
 51
214.684874
  0
ARC
  5
283
100
AcDbEntity
  8
1
  6
SOLID
 62
     0
100
AcDbCircle
 10
1.191778
 20
0.716697
 30
0.0
 40
0.635253
210
0.0
220
0.0
230
1.0
100
AcDbArc
 50
218.035102
 51
230.111269
  0
ARC
  5
284
100
AcDbEntity
  8
1
  6
SOLID
 62
     0
100
AcDbCircle
 10
0.694301
 20
0.127693
 30
0.0
 40
0.135774
210
0.0
220
0.0
230
1.0
100
AcDbArc
 50
27.291961
 51
48.430423
  0
ARC
  5
285
100
AcDbEntity
  8
1
  6
SOLID
 62
     0
100
AcDbCircle
 10
0.670572
 20
0.051844
 30
0.0
 40
0.199802
210
0.0
220
0.0
230
1.0
100
AcDbArc
 50
7.026694
 51
43.725911
  0
LINE
  5
286
100
AcDbEntity
  8
1
  6
SOLID
 62
     0
100
AcDbLine
 10
0.868874
 20
0.076285
 30
0.0
 11
0.868874
 21
0.06767
 31
0.0
  0
LINE
  5
287
100
AcDbEntity
  8
1
  6
SOLID
 62
     0
100
AcDbLine
 10
0.868874
 20
0.06767
 30
0.0
 11
0.868874
 21
0.064058
 31
0.0
  0
ARC
  5
288
100
AcDbEntity
  8
1
  6
SOLID
 62
     0
100
AcDbCircle
 10
0.925977
 20
0.065446
 30
0.0
 40
0.05712
210
0.0
220
0.0
230
1.0
100
AcDbArc
 50
181.393104
 51
208.001482
  0
ARC
  5
289
100
AcDbEntity
  8
1
  6
SOLID
 62
     0
100
AcDbCircle
 10
0.780288
 20
0.016429
 30
0.0
 40
0.097808
210
0.0
220
0.0
230
1.0
100
AcDbArc
 50
-24.888243
 51
13.11911
  0
ARC
  5
28A
100
AcDbEntity
  8
1
  6
SOLID
 62
     0
100
AcDbCircle
 10
0.77823
 20
-0.035727
 30
0.0
 40
0.091446
210
0.0
220
0.0
230
1.0
100
AcDbArc
 50
-26.231468
 51
6.904898
  0
ARC
  5
28B
100
AcDbEntity
  8
1
  6
SOLID
 62
     0
100
AcDbCircle
 10
0.825902
 20
-0.081854
 30
0.0
 40
0.034828
210
0.0
220
0.0
230
1.0
100
AcDbArc
 50
-42.681843
 51
9.432798
  0
ARC
  5
28C
100
AcDbEntity
  8
1
  6
SOLID
 62
     0
100
AcDbCircle
 10
0.808013
 20
0.163834
 30
0.0
 40
0.272788
210
0.0
220
0.0
230
1.0
100
AcDbArc
 50
266.290843
 51
279.17412
  0
ARC
  5
28D
100
AcDbEntity
  8
1
  6
SOLID
 62
     0
100
AcDbCircle
 10
0.786489
 20
-0.139916
 30
0.0
 40
0.031771
210
0.0
220
0.0
230
1.0
100
AcDbArc
 50
82.991361
 51
143.208419
  0
ARC
  5
28E
100
AcDbEntity
  8
1
  6
SOLID
 62
     0
100
AcDbCircle
 10
0.922392
 20
-0.249749
 30
0.0
 40
0.206488
210
0.0
220
0.0
230
1.0
100
AcDbArc
 50
141.387088
 51
167.036453
  0
ARC
  5
28F
100
AcDbEntity
  8
1
  6
SOLID
 62
     0
100
AcDbCircle
 10
0.697927
 20
-0.183697
 30
0.0
 40
0.030485
210
0.0
220
0.0
230
1.0
100
AcDbArc
 50
248.403482
 51
319.669273
  0
ARC
  5
290
100
AcDbEntity
  8
1
  6
SOLID
 62
     0
100
AcDbCircle
 10
0.656632
 20
-0.275637
 30
0.0
 40
0.070347
210
0.0
220
0.0
230
1.0
100
AcDbArc
 50
64.690122
 51
104.711516
  0
ARC
  5
291
100
AcDbEntity
  8
1
  6
SOLID
 62
     0
100
AcDbCircle
 10
0.675433
 20
-0.351099
 30
0.0
 40
0.148113
210
0.0
220
0.0
230
1.0
100
AcDbArc
 50
104.332444
 51
126.689549
  0
ARC
  5
292
100
AcDbEntity
  8
1
  6
SOLID
 62
     0
100
AcDbCircle
 10
0.788083
 20
-0.396414
 30
0.0
 40
0.259582
210
0.0
220
0.0
230
1.0
100
AcDbArc
 50
140.7942
 51
162.593224
  0
ARC
  5
293
100
AcDbEntity
  8
1
  6
SOLID
 62
     0
100
AcDbCircle
 10
0.497059
 20
-0.317106
 30
0.0
 40
0.043362
210
0.0
220
0.0
230
1.0
100
AcDbArc
 50
305.865969
 51
357.816262
  0
LINE
  5
294
100
AcDbEntity
  8
1
  6
SOLID
 62
     0
100
AcDbLine
 10
0.522464
 20
-0.352246
 30
0.0
 11
0.520519
 21
-0.352663
 31
0.0
  0
ARC
  5
295
100
AcDbEntity
  8
1
  6
SOLID
 62
     0
100
AcDbCircle
 10
0.537356
 20
-0.328279
 30
0.0
 40
0.029633
210
0.0
220
0.0
230
1.0
100
AcDbArc
 50
185.78302
 51
235.375395
  0
ARC
  5
296
100
AcDbEntity
  8
1
  6
SOLID
 62
     0
100
AcDbCircle
 10
0.44294
 20
-0.365419
 30
0.0
 40
0.073368
210
0.0
220
0.0
230
1.0
100
AcDbArc
 50
27.744181
 51
104.667444
  0
LINE
  5
297
100
AcDbEntity
  8
1
  6
SOLID
 62
     0
100
AcDbLine
 10
0.424363
 20
-0.294442
 30
0.0
 11
0.41672
 21
-0.29597
 31
0.0
  0
ARC
  5
298
100
AcDbEntity
  8
1
  6
SOLID
 62
     0
100
AcDbCircle
 10
0.512365
 20
-0.514719
 30
0.0
 40
0.238745
210
0.0
220
0.0
230
1.0
100
AcDbArc
 50
113.616563
 51
131.225839
  0
ARC
  5
299
100
AcDbEntity
  8
1
  6
SOLID
 62
     0
100
AcDbCircle
 10
0.464833
 20
-0.508695
 30
0.0
 40
0.205362
210
0.0
220
0.0
230
1.0
100
AcDbArc
 50
122.323743
 51
146.769875
  0
LINE
  5
29A
100
AcDbEntity
  8
1
  6
SOLID
 62
     0
100
AcDbLine
 10
0.293052
 20
-0.396155
 30
0.0
 11
0.291107
 21
-0.39685
 31
0.0
  0
ARC
  5
29B
100
AcDbEntity
  8
1
  6
SOLID
 62
     0
100
AcDbCircle
 10
0.307519
 20
-0.365646
 30
0.0
 40
0.035257
210
0.0
220
0.0
230
1.0
100
AcDbArc
 50
194.975062
 51
242.256647
  0
ARC
  5
29C
100
AcDbEntity
  8
1
  6
SOLID
 62
     0
100
AcDbCircle
 10
0.16227
 20
-0.409772
 30
0.0
 40
0.116573
210
0.0
220
0.0
230
1.0
100
AcDbArc
 50
17.480061
 51
85.200164
  0
ARC
  5
29D
100
AcDbEntity
  8
1
  6
SOLID
 62
     0
100
AcDbCircle
 10
0.163351
 20
-0.420973
 30
0.0
 40
0.12766
210
0.0
220
0.0
230
1.0
100
AcDbArc
 50
86.104472
 51
120.376596
  0
ARC
  5
29E
100
AcDbEntity
  8
1
  6
SOLID
 62
     0
100
AcDbCircle
 10
0.146544
 20
-0.434039
 30
0.0
 40
0.13213
210
0.0
220
0.0
230
1.0
100
AcDbArc
 50
111.18436
 51
151.368941
  0
ARC
  5
29F
100
AcDbEntity
  8
1
  6
SOLID
 62
     0
100
AcDbCircle
 10
-0.304865
 20
-0.206362
 30
0.0
 40
0.37354
210
0.0
220
0.0
230
1.0
100
AcDbArc
 50
321.815062
 51
333.894945
  0
ARC
  5
2A0
100
AcDbEntity
  8
1
  6
SOLID
 62
     0
100
AcDbCircle
 10
-0.406483
 20
-0.243356
 30
0.0
 40
0.440243
210
0.0
220
0.0
230
1.0
100
AcDbArc
 50
322.43344
 51
333.863854
  0
ARC
  5
2A1
100
AcDbEntity
  8
1
  6
SOLID
 62
     0
100
AcDbCircle
 10
-0.489409
 20
-0.296322
 30
0.0
 40
0.482637
210
0.0
220
0.0
230
1.0
100
AcDbArc
 50
323.059058
 51
333.487893
  0
ARC
  5
2A2
100
AcDbEntity
  8
1
  6
SOLID
 62
     0
100
AcDbCircle
 10
-1.57481
 20
0.249476
 30
0.0
 40
1.692024
210
0.0
220
0.0
230
1.0
100
AcDbArc
 50
323.586103
 51
330.396222
  0
ARC
  5
2A3
100
AcDbEntity
  8
1
  6
SOLID
 62
     0
100
AcDbCircle
 10
-0.133488
 20
-0.843941
 30
0.0
 40
0.119453
210
0.0
220
0.0
230
1.0
100
AcDbArc
 50
131.829877
 51
156.661887
  0
ARC
  5
2A4
100
AcDbEntity
  8
1
  6
SOLID
 62
     0
100
AcDbCircle
 10
-0.524196
 20
-0.638494
 30
0.0
 40
0.322459
210
0.0
220
0.0
230
1.0
100
AcDbArc
 50
315.933942
 51
330.635032
  0
ARC
  5
2A5
100
AcDbEntity
  8
1
  6
SOLID
 62
     0
100
AcDbCircle
 10
-0.398147
 20
-0.811983
 30
0.0
 40
0.117219
210
0.0
220
0.0
230
1.0
100
AcDbArc
 50
308.256017
 51
334.330301
  0
ARC
  5
2A6
100
AcDbEntity
  8
1
  6
SOLID
 62
     0
100
AcDbCircle
 10
-0.477033
 20
-0.824869
 30
0.0
 40
0.170904
210
0.0
220
0.0
230
1.0
100
AcDbArc
 50
305.948779
 51
332.407166
  0
ARC
  5
2A7
100
AcDbEntity
  8
1
  6
SOLID
 62
     0
100
AcDbCircle
 10
-0.417759
 20
-0.818766
 30
0.0
 40
0.054972
210
0.0
220
0.0
230
1.0
100
AcDbArc
 50
175.740743
 51
211.993895
  0
ARC
  5
2A8
100
AcDbEntity
  8
1
  6
SOLID
 62
     0
100
AcDbCircle
 10
-0.423835
 20
-0.784531
 30
0.0
 40
0.057316
210
0.0
220
0.0
230
1.0
100
AcDbArc
 50
172.335361
 51
211.739061
  0
ARC
  5
2A9
100
AcDbEntity
  8
1
  6
SOLID
 62
     0
100
AcDbCircle
 10
-0.52644
 20
-0.780433
 30
0.0
 40
0.045939
210
0.0
220
0.0
230
1.0
100
AcDbArc
 50
4.42753
 51
32.888556
  0
ARC
  5
2AA
100
AcDbEntity
  8
1
  6
SOLID
 62
     0
100
AcDbCircle
 10
-0.589344
 20
-0.749784
 30
0.0
 40
0.10164
210
0.0
220
0.0
230
1.0
100
AcDbArc
 50
356.782718
 51
386.199998
  0
ARC
  5
2AB
100
AcDbEntity
  8
1
  6
SOLID
 62
     0
100
AcDbCircle
 10
-0.628237
 20
-0.475673
 30
0.0
 40
0.183908
210
0.0
220
0.0
230
1.0
100
AcDbArc
 50
102.071262
 51
138.078636
  0
ARC
  5
2AC
100
AcDbEntity
  8
1
  6
SOLID
 62
     0
100
AcDbCircle
 10
-0.715358
 20
-0.448408
 30
0.0
 40
0.107761
210
0.0
220
0.0
230
1.0
100
AcDbArc
 50
117.475524
 51
151.078672
  0
LINE
  5
2AD
100
AcDbEntity
  8
1
  6
SOLID
 62
     0
100
AcDbLine
 10
-0.80968
 20
-0.396294
 30
0.0
 11
-0.811347
 21
-0.39685
 31
0.0
  0
ARC
  5
2AE
100
AcDbEntity
  8
1
  6
SOLID
 62
     0
100
AcDbCircle
 10
-0.795563
 20
-0.366525
 30
0.0
 40
0.034187
210
0.0
220
0.0
230
1.0
100
AcDbArc
 50
198.297703
 51
242.503462
  0
ARC
  5
2AF
100
AcDbEntity
  8
1
  6
SOLID
 62
     0
100
AcDbCircle
 10
-0.966475
 20
-0.427907
 30
0.0
 40
0.147426
210
0.0
220
0.0
230
1.0
100
AcDbArc
 50
20.093561
 51
63.620946
  0
ARC
  5
2B0
100
AcDbEntity
  8
1
  6
SOLID
 62
     0
100
AcDbCircle
 10
-0.925882
 20
-0.419009
 30
0.0
 40
0.125671
210
0.0
220
0.0
230
1.0
100
AcDbArc
 50
78.567461
 51
100.430169
  0
ARC
  5
2B1
100
AcDbEntity
  8
1
  6
SOLID
 62
     0
100
AcDbCircle
 10
-0.585747
 20
-0.898073
 30
0.0
 40
0.70348
210
0.0
220
0.0
230
1.0
100
AcDbArc
 50
121.053888
 51
129.328454
  0
LINE
  5
2B2
100
AcDbEntity
  8
1
  6
SOLID
 62
     0
100
AcDbLine
 10
-1.031588
 20
-0.353913
 30
0.0
 11
-1.033117
 21
-0.354053
 31
0.0
  0
ARC
  5
2B3
100
AcDbEntity
  8
1
  6
SOLID
 62
     0
100
AcDbCircle
 10
-1.014851
 20
-0.341199
 30
0.0
 40
0.022335
210
0.0
220
0.0
230
1.0
100
AcDbArc
 50
163.927808
 51
215.132927
  0
ARC
  5
2B4
100
AcDbEntity
  8
1
  6
SOLID
 62
     0
100
AcDbCircle
 10
-0.997777
 20
-0.336004
 30
0.0
 40
0.038548
210
0.0
220
0.0
230
1.0
100
AcDbArc
 50
145.755844
 51
178.531528
  0
ARC
  5
2B5
100
AcDbEntity
  8
1
  6
SOLID
 62
     0
100
AcDbCircle
 10
-1.147114
 20
-0.287008
 30
0.0
 40
0.120602
210
0.0
220
0.0
230
1.0
100
AcDbArc
 50
346.914898
 51
393.062063
  0
ARC
  5
2B6
100
AcDbEntity
  8
1
  6
SOLID
 62
     0
100
AcDbCircle
 10
-1.078105
 20
-0.245701
 30
0.0
 40
0.040347
210
0.0
220
0.0
230
1.0
100
AcDbArc
 50
37.367801
 51
88.269769
  0
ARC
  5
2B7
100
AcDbEntity
  8
1
  6
SOLID
 62
     0
100
AcDbCircle
 10
-1.088253
 20
-0.329599
 30
0.0
 40
0.124746
210
0.0
220
0.0
230
1.0
100
AcDbArc
 50
84.772319
 51
112.061831
  0
LINE
  5
2B8
100
AcDbEntity
  8
1
  6
SOLID
 62
     0
100
AcDbLine
 10
-1.135108
 20
-0.213988
 30
0.0
 11
-1.156507
 21
-0.214127
 31
0.0
  0
ARC
  5
2B9
100
AcDbEntity
  8
1
  6
SOLID
 62
     0
100
AcDbCircle
 10
-0.928934
 20
-0.166773
 30
0.0
 40
0.232448
210
0.0
220
0.0
230
1.0
100
AcDbArc
 50
173.401936
 51
191.754392
  0
LINE
  5
2BA
100
AcDbEntity
  8
1
  6
SOLID
 62
     0
100
AcDbLine
 10
-1.159842
 20
-0.140065
 30
0.0
 11
-1.163038
 21
-0.117415
 31
0.0
  0
LINE
  5
2BB
100
AcDbEntity
  8
1
  6
SOLID
 62
     0
100
AcDbLine
 10
-1.163038
 20
-0.117415
 30
0.0
 11
-1.171931
 21
-0.109912
 31
0.0
  0
ARC
  5
2BC
100
AcDbEntity
  8
1
  6
SOLID
 62
     0
100
AcDbCircle
 10
-1.194638
 20
-0.221309
 30
0.0
 40
0.113688
210
0.0
220
0.0
230
1.0
100
AcDbArc
 50
78.478409
 51
111.027959
  0
LINE
  5
2BD
100
AcDbEntity
  8
1
  6
SOLID
 62
     0
100
AcDbLine
 10
-1.235432
 20
-0.115192
 30
0.0
 11
-1.238906
 21
-0.108383
 31
0.0
  0
ARC
  5
2BE
100
AcDbEntity
  8
1
  6
SOLID
 62
     0
100
AcDbCircle
 10
-1.14721
 20
-0.093445
 30
0.0
 40
0.092905
210
0.0
220
0.0
230
1.0
100
AcDbArc
 50
150.671408
 51
189.252616
  0
ARC
  5
2BF
100
AcDbEntity
  8
1
  6
SOLID
 62
     0
100
AcDbCircle
 10
-1.05469
 20
-0.071491
 30
0.0
 40
0.175108
210
0.0
220
0.0
230
1.0
100
AcDbArc
 50
151.334934
 51
172.270075
  0
LINE
  5
2C0
100
AcDbEntity
  8
1
  6
SOLID
 62
     0
100
AcDbLine
 10
-1.164427
 20
0.086568
 30
0.0
 11
-1.154006
 21
0.099074
 31
0.0
  0
LINE
  5
2C1
100
AcDbEntity
  8
1
  6
SOLID
 62
     0
100
AcDbLine
 10
-1.154006
 20
0.099074
 30
0.0
 11
-1.144557
 21
0.115887
 31
0.0
  0
ARC
  5
2C2
100
AcDbEntity
  8
1
  6
SOLID
 62
     0
100
AcDbCircle
 10
-0.808208
 20
-0.165555
 30
0.0
 40
0.438566
210
0.0
220
0.0
230
1.0
100
AcDbArc
 50
128.079137
 51
140.078915
  0
ARC
  5
2C3
100
AcDbEntity
  8
1
  6
SOLID
 62
     0
100
AcDbCircle
 10
-1.141884
 20
0.30396
 30
0.0
 40
0.139434
210
0.0
220
0.0
230
1.0
100
AcDbArc
 50
296.948594
 51
320.63163
  0
ARC
  5
2C4
100
AcDbEntity
  8
1
  6
SOLID
 62
     0
100
AcDbCircle
 10
-1.078441
 20
0.308581
 30
0.0
 40
0.103093
210
0.0
220
0.0
230
1.0
100
AcDbArc
 50
295.480841
 51
318.793899
  0
ARC
  5
2C5
100
AcDbEntity
  8
1
  6
SOLID
 62
     0
100
AcDbCircle
 10
-1.161235
 20
0.557178
 30
0.0
 40
0.354814
210
0.0
220
0.0
230
1.0
100
AcDbArc
 50
296.868326
 51
308.771334
  0
ARC
  5
2C6
100
AcDbEntity
  8
1
  6
SOLID
 62
     0
100
AcDbCircle
 10
-1.322773
 20
0.906927
 30
0.0
 40
0.734575
210
0.0
220
0.0
230
1.0
100
AcDbArc
 50
301.492118
 51
307.164026
  0
ARC
  5
2C7
100
AcDbEntity
  8
1
  6
SOLID
 62
     0
100
AcDbCircle
 10
-0.902954
 20
0.387429
 30
0.0
 40
0.070104
210
0.0
220
0.0
230
1.0
100
AcDbArc
 50
289.964698
 51
315.567481
  0
ARC
  5
2C8
100
AcDbEntity
  8
1
  6
SOLID
 62
     0
100
AcDbCircle
 10
5.070381
 20
0.508943
 30
0.0
 40
5.947877
210
0.0
220
0.0
230
1.0
100
AcDbArc
 50
178.698229
 51
180.083921
  0
ARC
  5
2C9
100
AcDbEntity
  8
1
  6
SOLID
 62
     0
100
AcDbCircle
 10
-0.820682
 20
0.645324
 30
0.0
 40
0.05529
210
0.0
220
0.0
230
1.0
100
AcDbArc
 50
150.354529
 51
181.178855
  0
ARC
  5
2CA
100
AcDbEntity
  8
1
  6
SOLID
 62
     0
100
AcDbCircle
 10
-0.709157
 20
0.656466
 30
0.0
 40
0.160399
210
0.0
220
0.0
230
1.0
100
AcDbArc
 50
138.118081
 51
174.201024
  0
ARC
  5
2CB
100
AcDbEntity
  8
1
  6
SOLID
 62
     0
100
AcDbCircle
 10
-0.655576
 20
0.67368
 30
0.0
 40
0.194951
210
0.0
220
0.0
230
1.0
100
AcDbArc
 50
124.965609
 51
152.549775
  0
LINE
  5
2CC
100
AcDbEntity
  8
1
  6
SOLID
 62
     0
100
AcDbLine
 10
-0.767299
 20
0.833441
 30
0.0
 11
-0.758406
 21
0.835387
 31
0.0
  0
LINE
  5
2CD
100
AcDbEntity
  8
1
  6
SOLID
 62
     0
100
AcDbLine
 10
1.181936
 20
0.835387
 30
0.0
 11
1.691338
 21
0.835387
 31
0.0
  0
LINE
  5
2CE
100
AcDbEntity
  8
1
  6
SOLID
 62
     0
100
AcDbLine
 10
1.691338
 20
0.835387
 30
0.0
 11
1.80389
 21
0.830523
 31
0.0
  0
LINE
  5
2CF
100
AcDbEntity
  8
1
  6
SOLID
 62
     0
100
AcDbLine
 10
1.80389
 20
0.830523
 30
0.0
 11
1.843492
 21
0.826632
 31
0.0
  0
LINE
  5
2D0
100
AcDbEntity
  8
1
  6
SOLID
 62
     0
100
AcDbLine
 10
1.843492
 20
0.826632
 30
0.0
 11
1.856692
 21
0.821769
 31
0.0
  0
LINE
  5
2D1
100
AcDbEntity
  8
1
  6
SOLID
 62
     0
100
AcDbLine
 10
1.856692
 20
0.821769
 30
0.0
 11
1.854608
 21
0.803149
 31
0.0
  0
LINE
  5
2D2
100
AcDbEntity
  8
1
  6
SOLID
 62
     0
100
AcDbLine
 10
1.854608
 20
0.803149
 30
0.0
 11
1.848077
 21
0.788142
 31
0.0
  0
LINE
  5
2D3
100
AcDbEntity
  8
1
  6
SOLID
 62
     0
100
AcDbLine
 10
1.848077
 20
0.788142
 30
0.0
 11
1.847938
 21
0.777582
 31
0.0
  0
LINE
  5
2D4
100
AcDbEntity
  8
1
  6
SOLID
 62
     0
100
AcDbLine
 10
1.847938
 20
0.777582
 30
0.0
 11
1.846548
 21
0.770078
 31
0.0
  0
ARC
  5
2D5
100
AcDbEntity
  8
1
  6
SOLID
 62
     0
100
AcDbCircle
 10
1.900663
 20
0.73797
 30
0.0
 40
0.062923
210
0.0
220
0.0
230
1.0
100
AcDbArc
 50
149.317935
 51
187.988017
  0
ARC
  5
2D6
100
AcDbEntity
  8
1
  6
SOLID
 62
     0
100
AcDbCircle
 10
1.770903
 20
0.74363
 30
0.0
 40
0.068968
210
0.0
220
0.0
230
1.0
100
AcDbArc
 50
329.667512
 51
347.945109
  0
ARC
  5
2D7
100
AcDbEntity
  8
1
  6
SOLID
 62
     0
100
AcDbCircle
 10
1.764777
 20
0.70526
 30
0.0
 40
0.065749
210
0.0
220
0.0
230
1.0
100
AcDbArc
 50
-30.551318
 51
3.086609
  0
ARC
  5
2D8
100
AcDbEntity
  8
1
  6
SOLID
 62
     0
100
AcDbCircle
 10
1.77535
 20
0.666919
 30
0.0
 40
0.04631
210
0.0
220
0.0
230
1.0
100
AcDbArc
 50
-42.836042
 51
6.098408
  0
ARC
  5
2D9
100
AcDbEntity
  8
1
  6
SOLID
 62
     0
100
AcDbCircle
 10
1.849591
 20
0.459631
 30
0.0
 40
0.180357
210
0.0
220
0.0
230
1.0
100
AcDbArc
 50
102.905679
 51
126.216934
  0
ARC
  5
2DA
100
AcDbEntity
  8
1
  6
SOLID
 62
     0
100
AcDbCircle
 10
1.789355
 20
0.560547
 30
0.0
 40
0.064302
210
0.0
220
0.0
230
1.0
100
AcDbArc
 50
136.091656
 51
196.195743
  0
ARC
  5
2DB
100
AcDbEntity
  8
1
  6
SOLID
 62
     0
100
AcDbCircle
 10
1.842345
 20
0.612998
 30
0.0
 40
0.134608
210
0.0
220
0.0
230
1.0
100
AcDbArc
 50
211.526478
 51
231.824663
  0
LINE
  5
2DC
100
AcDbEntity
  8
1
  6
SOLID
 62
     0
100
AcDbLine
 10
1.759147
 20
0.507179
 30
0.0
 11
1.774154
 21
0.483279
 31
0.0
  0
ARC
  5
2DD
100
AcDbEntity
  8
1
  6
SOLID
 62
     0
100
AcDbCircle
 10
2.185751
 20
0.840688
 30
0.0
 40
0.545117
210
0.0
220
0.0
230
1.0
100
AcDbArc
 50
220.969296
 51
232.279936
  0
ARC
  5
2DE
100
AcDbEntity
  8
1
  6
SOLID
 62
     0
100
AcDbCircle
 10
1.819131
 20
0.339142
 30
0.0
 40
0.077757
210
0.0
220
0.0
230
1.0
100
AcDbArc
 50
39.415686
 51
64.793866
  0
ARC
  5
2DF
100
AcDbEntity
  8
1
  6
SOLID
 62
     0
100
AcDbCircle
 10
1.828128
 20
0.282235
 30
0.0
 40
0.117914
210
0.0
220
0.0
230
1.0
100
AcDbArc
 50
48.023063
 51
64.332691
  0
ARC
  5
2E0
100
AcDbEntity
  8
1
  6
SOLID
 62
     0
100
AcDbCircle
 10
1.957919
 20
0.482653
 30
0.0
 40
0.123726
210
0.0
220
0.0
230
1.0
100
AcDbArc
 50
245.694445
 51
273.767188
  0
ARC
  5
2E1
100
AcDbEntity
  8
1
  6
SOLID
 62
     0
100
AcDbCircle
 10
1.868691
 20
0.653356
 30
0.0
 40
0.309854
210
0.0
220
0.0
230
1.0
100
AcDbArc
 50
288.312749
 51
310.683896
  0
ARC
  5
2E2
100
AcDbEntity
  8
1
  6
SOLID
 62
     0
100
AcDbCircle
 10
2.013982
 20
0.530976
 30
0.0
 40
0.126059
210
0.0
220
0.0
230
1.0
100
AcDbArc
 50
296.729618
 51
316.866256
  0
ARC
  5
2E3
100
AcDbEntity
  8
1
  6
SOLID
 62
     0
100
AcDbCircle
 10
2.039389
 20
0.573023
 30
0.0
 40
0.14449
210
0.0
220
0.0
230
1.0
100
AcDbArc
 50
297.440258
 51
319.967271
  0
LINE
  5
2E4
100
AcDbEntity
  8
1
  6
SOLID
 62
     0
100
AcDbLine
 10
2.150022
 20
0.480083
 30
0.0
 11
2.165863
 21
0.489393
 31
0.0
  0
LINE
  5
2E5
100
AcDbEntity
  8
1
  6
SOLID
 62
     0
100
AcDbLine
 10
2.165863
 20
0.489393
 30
0.0
 11
2.217553
 21
0.539555
 31
0.0
  0
LINE
  5
2E6
100
AcDbEntity
  8
1
  6
SOLID
 62
     0
100
AcDbLine
 10
2.217553
 20
0.539555
 30
0.0
 11
2.233811
 21
0.54956
 31
0.0
  0
LINE
  5
2E7
100
AcDbEntity
  8
1
  6
SOLID
 62
     0
100
AcDbLine
 10
2.233811
 20
0.54956
 30
0.0
 11
2.245483
 21
0.564428
 31
0.0
  0
LINE
  5
2E8
100
AcDbEntity
  8
1
  6
SOLID
 62
     0
100
AcDbLine
 10
2.245483
 20
0.564428
 30
0.0
 11
2.253403
 21
0.579574
 31
0.0
  0
LINE
  5
2E9
100
AcDbEntity
  8
1
  6
SOLID
 62
     0
100
AcDbLine
 10
2.253403
 20
0.579574
 30
0.0
 11
2.25785
 21
0.594858
 31
0.0
  0
LINE
  5
2EA
100
AcDbEntity
  8
1
  6
SOLID
 62
     0
100
AcDbLine
 10
2.25785
 20
0.594858
 30
0.0
 11
2.258406
 21
0.599166
 31
0.0
  0
ARC
  5
2EB
100
AcDbEntity
  8
1
  6
SOLID
 62
     0
100
AcDbCircle
 10
2.223532
 20
0.597001
 30
0.0
 40
0.034941
210
0.0
220
0.0
230
1.0
100
AcDbArc
 50
3.552036
 51
85.215561
  0
ARC
  5
2EC
100
AcDbEntity
  8
1
  6
SOLID
 62
     0
100
AcDbCircle
 10
2.225659
 20
0.652483
 30
0.0
 40
0.020678
210
0.0
220
0.0
230
1.0
100
AcDbArc
 50
231.650309
 51
272.183093
  0
ARC
  5
2ED
100
AcDbEntity
  8
1
  6
SOLID
 62
     0
100
AcDbCircle
 10
2.239264
 20
0.644214
 30
0.0
 40
0.027604
210
0.0
220
0.0
230
1.0
100
AcDbArc
 50
139.581681
 51
196.733381
  0
ARC
  5
2EE
100
AcDbEntity
  8
1
  6
SOLID
 62
     0
100
AcDbCircle
 10
2.276558
 20
0.666382
 30
0.0
 40
0.058465
210
0.0
220
0.0
230
1.0
100
AcDbArc
 50
147.95149
 51
184.188523
  0
ARC
  5
2EF
100
AcDbEntity
  8
1
  6
SOLID
 62
     0
100
AcDbCircle
 10
2.284294
 20
0.701738
 30
0.0
 40
0.057455
210
0.0
220
0.0
230
1.0
100
AcDbArc
 50
147.39162
 51
184.324048
  0
ARC
  5
2F0
100
AcDbEntity
  8
1
  6
SOLID
 62
     0
100
AcDbCircle
 10
2.294213
 20
0.736968
 30
0.0
 40
0.058474
210
0.0
220
0.0
230
1.0
100
AcDbArc
 50
147.954168
 51
184.185818
  0
ARC
  5
2F1
100
AcDbEntity
  8
1
  6
SOLID
 62
     0
100
AcDbCircle
 10
2.302474
 20
0.772192
 30
0.0
 40
0.057976
210
0.0
220
0.0
230
1.0
100
AcDbArc
 50
147.563563
 51
184.152186
  0
ARC
  5
2F2
100
AcDbEntity
  8
1
  6
SOLID
 62
     0
100
AcDbCircle
 10
2.287344
 20
0.809281
 30
0.0
 40
0.034329
210
0.0
220
0.0
230
1.0
100
AcDbArc
 50
137.196114
 51
190.054276
  0
ARC
  5
2F3
100
AcDbEntity
  8
1
  6
SOLID
 62
     0
100
AcDbCircle
 10
2.600392
 20
-11.724381
 30
0.0
 40
12.561543
210
0.0
220
0.0
230
1.0
100
AcDbArc
 50
89.03669
 51
91.542942
  0
ARC
  5
2F4
100
AcDbEntity
  8
1
  6
SOLID
 62
     0
100
AcDbCircle
 10
2.806554
 20
-0.885608
 30
0.0
 40
1.721002
210
0.0
220
0.0
230
1.0
100
AcDbArc
 50
84.216141
 51
89.832724
  0
LINE
  5
2F5
100
AcDbEntity
  8
1
  6
SOLID
 62
     0
100
AcDbLine
 10
2.97999
 20
0.826632
 30
0.0
 11
2.994579
 21
0.821769
 31
0.0
  0
ARC
  5
2F6
100
AcDbEntity
  8
1
  6
SOLID
 62
     0
100
AcDbCircle
 10
2.941956
 20
0.818609
 30
0.0
 40
0.052718
210
0.0
220
0.0
230
1.0
100
AcDbArc
 50
-32.57409
 51
3.436099
  0
ARC
  5
2F7
100
AcDbEntity
  8
1
  6
SOLID
 62
     0
100
AcDbCircle
 10
2.9227
 20
0.786364
 30
0.0
 40
0.063798
210
0.0
220
0.0
230
1.0
100
AcDbArc
 50
-31.544261
 51
3.471247
  0
ARC
  5
2F8
100
AcDbEntity
  8
1
  6
SOLID
 62
     0
100
AcDbCircle
 10
2.911336
 20
0.74934
 30
0.0
 40
0.065836
210
0.0
220
0.0
230
1.0
100
AcDbArc
 50
-30.539432
 51
3.175642
  0
ARC
  5
2F9
100
AcDbEntity
  8
1
  6
SOLID
 62
     0
100
AcDbCircle
 10
2.91551
 20
0.711549
 30
0.0
 40
0.052709
210
0.0
220
0.0
230
1.0
100
AcDbArc
 50
-33.575316
 51
4.720906
  0
ARC
  5
2FA
100
AcDbEntity
  8
1
  6
SOLID
 62
     0
100
AcDbCircle
 10
2.893683
 20
0.678755
 30
0.0
 40
0.065843
210
0.0
220
0.0
230
1.0
100
AcDbArc
 50
-30.538587
 51
3.17299
  0
ARC
  5
2FB
100
AcDbEntity
  8
1
  6
SOLID
 62
     0
100
AcDbCircle
 10
2.918076
 20
0.640192
 30
0.0
 40
0.032717
210
0.0
220
0.0
230
1.0
100
AcDbArc
 50
-43.224022
 51
8.979295
  0
ARC
  5
2FC
100
AcDbEntity
  8
1
  6
SOLID
 62
     0
100
AcDbCircle
 10
2.843329
 20
1.913791
 30
0.0
 40
1.29975
210
0.0
220
0.0
230
1.0
100
AcDbArc
 50
267.956753
 51
274.350148
  0
ARC
  5
2FD
100
AcDbEntity
  8
1
  6
SOLID
 62
     0
100
AcDbCircle
 10
2.783465
 20
0.497411
 30
0.0
 40
0.118233
210
0.0
220
0.0
230
1.0
100
AcDbArc
 50
83.432379
 51
109.04691
  0
ARC
  5
2FE
100
AcDbEntity
  8
1
  6
SOLID
 62
     0
100
AcDbCircle
 10
3.471287
 20
-0.378262
 30
0.0
 40
1.225843
210
0.0
220
0.0
230
1.0
100
AcDbArc
 50
126.340126
 51
131.578837
  0
ARC
  5
2FF
100
AcDbEntity
  8
1
  6
SOLID
 62
     0
100
AcDbCircle
 10
2.750318
 20
0.377839
 30
0.0
 40
0.185609
210
0.0
220
0.0
230
1.0
100
AcDbArc
 50
119.91326
 51
137.709929
  0
ARC
  5
300
100
AcDbEntity
  8
1
  6
SOLID
 62
     0
100
AcDbCircle
 10
2.670249
 20
0.386167
 30
0.0
 40
0.129859
210
0.0
220
0.0
230
1.0
100
AcDbArc
 50
116.151492
 51
141.255808
  0
ARC
  5
301
100
AcDbEntity
  8
1
  6
SOLID
 62
     0
100
AcDbCircle
 10
2.620619
 20
0.360671
 30
0.0
 40
0.118606
210
0.0
220
0.0
230
1.0
100
AcDbArc
 50
115.817073
 51
142.011705
  0
ARC
  5
302
100
AcDbEntity
  8
1
  6
SOLID
 62
     0
100
AcDbCircle
 10
2.592273
 20
0.310175
 30
0.0
 40
0.13962
210
0.0
220
0.0
230
1.0
100
AcDbArc
 50
117.806871
 51
139.559558
  0
ARC
  5
303
100
AcDbEntity
  8
1
  6
SOLID
 62
     0
100
AcDbCircle
 10
2.56935
 20
0.244773
 30
0.0
 40
0.176838
210
0.0
220
0.0
230
1.0
100
AcDbArc
 50
118.117125
 51
138.609615
  0
ARC
  5
304
100
AcDbEntity
  8
1
  6
SOLID
 62
     0
100
AcDbCircle
 10
2.482022
 20
0.266004
 30
0.0
 40
0.105889
210
0.0
220
0.0
230
1.0
100
AcDbArc
 50
115.352005
 51
142.712524
  0
ARC
  5
305
100
AcDbEntity
  8
1
  6
SOLID
 62
     0
100
AcDbCircle
 10
2.484545
 20
0.169852
 30
0.0
 40
0.182278
210
0.0
220
0.0
230
1.0
100
AcDbArc
 50
118.426082
 51
138.300631
  0
ARC
  5
306
100
AcDbEntity
  8
1
  6
SOLID
 62
     0
100
AcDbCircle
 10
2.38788
 20
0.204538
 30
0.0
 40
0.095127
210
0.0
220
0.0
230
1.0
100
AcDbArc
 50
114.489161
 51
139.785788
  0
ARC
  5
307
100
AcDbEntity
  8
1
  6
SOLID
 62
     0
100
AcDbCircle
 10
2.361818
 20
0.162778
 30
0.0
 40
0.113206
210
0.0
220
0.0
230
1.0
100
AcDbArc
 50
114.297014
 51
143.066655
  0
ARC
  5
308
100
AcDbEntity
  8
1
  6
SOLID
 62
     0
100
AcDbCircle
 10
2.336446
 20
0.107322
 30
0.0
 40
0.139597
210
0.0
220
0.0
230
1.0
100
AcDbArc
 50
117.805313
 51
139.561607
  0
ARC
  5
309
100
AcDbEntity
  8
1
  6
SOLID
 62
     0
100
AcDbCircle
 10
2.295604
 20
0.071106
 30
0.0
 40
0.142642
210
0.0
220
0.0
230
1.0
100
AcDbArc
 50
117.292298
 51
140.11503
  0
ARC
  5
30A
100
AcDbEntity
  8
1
  6
SOLID
 62
     0
100
AcDbCircle
 10
2.198709
 20
0.116735
 30
0.0
 40
0.04753
210
0.0
220
0.0
230
1.0
100
AcDbArc
 50
105.321251
 51
154.752187
  0
LINE
  5
30B
100
AcDbEntity
  8
1
  6
SOLID
 62
     0
100
AcDbLine
 10
2.15572
 20
0.137008
 30
0.0
 11
2.286891
 21
0.004169
 31
0.0
  0
LINE
  5
30C
100
AcDbEntity
  8
1
  6
SOLID
 62
     0
100
AcDbLine
 10
2.286891
 20
0.004169
 30
0.0
 11
2.299675
 21
-0.011394
 31
0.0
  0
LINE
  5
30D
100
AcDbEntity
  8
1
  6
SOLID
 62
     0
100
AcDbLine
 10
2.299675
 20
-0.011394
 30
0.0
 11
2.303427
 21
-0.019592
 31
0.0
  0
LINE
  5
30E
100
AcDbEntity
  8
1
  6
SOLID
 62
     0
100
AcDbLine
 10
2.303427
 20
-0.019592
 30
0.0
 11
2.469337
 21
-0.187031
 31
0.0
  0
LINE
  5
30F
100
AcDbEntity
  8
1
  6
SOLID
 62
     0
100
AcDbLine
 10
2.469337
 20
-0.187031
 30
0.0
 11
2.484899
 21
-0.205373
 31
0.0
  0
LINE
  5
310
100
AcDbEntity
  8
1
  6
SOLID
 62
     0
100
AcDbLine
 10
2.484899
 20
-0.205373
 30
0.0
 11
2.488651
 21
-0.213571
 31
0.0
  0
LINE
  5
311
100
AcDbEntity
  8
1
  6
SOLID
 62
     0
100
AcDbLine
 10
2.488651
 20
-0.213571
 30
0.0
 11
2.582444
 21
-0.307503
 31
0.0
  0
LINE
  5
312
100
AcDbEntity
  8
1
  6
SOLID
 62
     0
100
AcDbLine
 10
2.582444
 20
-0.307503
 30
0.0
 11
2.613848
 21
-0.32793
 31
0.0
  0
LINE
  5
313
100
AcDbEntity
  8
1
  6
SOLID
 62
     0
100
AcDbLine
 10
2.613848
 20
-0.32793
 30
0.0
 11
2.629411
 21
-0.335294
 31
0.0
  0
LINE
  5
314
100
AcDbEntity
  8
1
  6
SOLID
 62
     0
100
AcDbLine
 10
2.629411
 20
-0.335294
 30
0.0
 11
2.642611
 21
-0.337656
 31
0.0
  0
LINE
  5
315
100
AcDbEntity
  8
1
  6
SOLID
 62
     0
100
AcDbLine
 10
2.642611
 20
-0.337656
 30
0.0
 11
2.701249
 21
-0.337656
 31
0.0
  0
LINE
  5
316
100
AcDbEntity
  8
1
  6
SOLID
 62
     0
100
AcDbLine
 10
2.701249
 20
-0.337656
 30
0.0
 11
2.720842
 21
-0.342658
 31
0.0
  0
LINE
  5
317
100
AcDbEntity
  8
1
  6
SOLID
 62
     0
100
AcDbLine
 10
2.720842
 20
-0.342658
 30
0.0
 11
2.727651
 21
-0.34641
 31
0.0
  0
LINE
  5
318
100
AcDbEntity
  8
1
  6
SOLID
 62
     0
100
AcDbLine
 10
2.727651
 20
-0.34641
 30
0.0
 11
2.730013
 21
-0.351412
 31
0.0
  0
ARC
  5
319
100
AcDbEntity
  8
1
  6
SOLID
 62
     0
100
AcDbCircle
 10
2.66968
 20
-0.353529
 30
0.0
 40
0.06037
210
0.0
220
0.0
230
1.0
100
AcDbArc
 50
-31.308895
 51
2.009447
  0
ARC
  5
31A
100
AcDbEntity
  8
1
  6
SOLID
 62
     0
100
AcDbCircle
 10
2.680365
 20
-0.390631
 30
0.0
 40
0.041294
210
0.0
220
0.0
230
1.0
100
AcDbArc
 50
-34.367124
 51
7.97772
  0
ARC
  5
31B
100
AcDbEntity
  8
1
  6
SOLID
 62
     0
100
AcDbCircle
 10
2.85001
 20
-0.442269
 30
0.0
 40
0.138488
210
0.0
220
0.0
230
1.0
100
AcDbArc
 50
168.196687
 51
180.697446
  0
ARC
  5
31C
100
AcDbEntity
  8
1
  6
SOLID
 62
     0
100
AcDbCircle
 10
2.748597
 20
-0.470115
 30
0.0
 40
0.045367
210
0.0
220
0.0
230
1.0
100
AcDbArc
 50
144.785858
 51
185.931584
  0
ARC
  5
31D
100
AcDbEntity
  8
1
  6
SOLID
 62
     0
100
AcDbCircle
 10
2.643882
 20
-0.467914
 30
0.0
 40
0.059988
210
0.0
220
0.0
230
1.0
100
AcDbArc
 50
328.186509
 51
353.405353
  0
ARC
  5
31E
100
AcDbEntity
  8
1
  6
SOLID
 62
     0
100
AcDbCircle
 10
2.6353
 20
-0.504273
 30
0.0
 40
0.059746
210
0.0
220
0.0
230
1.0
100
AcDbArc
 50
-49.083151
 51
4.547174
  0
LINE
  5
31F
100
AcDbEntity
  8
1
  6
SOLID
 62
     0
100
AcDbLine
 10
2.674431
 20
-0.549421
 30
0.0
 11
2.114728
 21
-0.549421
 31
0.0
  0
LINE
  5
320
100
AcDbEntity
  8
1
  6
SOLID
 62
     0
100
AcDbLine
 10
2.114728
 20
-0.549421
 30
0.0
 11
1.987308
 21
-0.545947
 31
0.0
  0
LINE
  5
321
100
AcDbEntity
  8
1
  6
SOLID
 62
     0
100
AcDbLine
 10
1.987308
 20
-0.545947
 30
0.0
 11
1.942287
 21
-0.543446
 31
0.0
  0
LINE
  5
322
100
AcDbEntity
  8
1
  6
SOLID
 62
     0
100
AcDbLine
 10
1.942287
 20
-0.543446
 30
0.0
 11
1.92728
 21
-0.540111
 31
0.0
  0
LINE
  5
323
100
AcDbEntity
  8
1
  6
SOLID
 62
     0
100
AcDbLine
 10
1.92728
 20
-0.540111
 30
0.0
 11
1.92867
 21
-0.528439
 31
0.0
  0
ARC
  5
324
100
AcDbEntity
  8
1
  6
SOLID
 62
     0
100
AcDbCircle
 10
1.883369
 20
-0.499657
 30
0.0
 40
0.053671
210
0.0
220
0.0
230
1.0
100
AcDbArc
 50
327.5709
 51
364.584624
  0
ARC
  5
325
100
AcDbEntity
  8
1
  6
SOLID
 62
     0
100
AcDbCircle
 10
1.901682
 20
-0.469789
 30
0.0
 40
0.043502
210
0.0
220
0.0
230
1.0
100
AcDbArc
 50
323.984395
 51
366.218706
  0
ARC
  5
326
100
AcDbEntity
  8
1
  6
SOLID
 62
     0
100
AcDbCircle
 10
0.824865
 20
-0.073077
 30
0.0
 40
1.186677
210
0.0
220
0.0
230
1.0
100
AcDbArc
 50
340.710982
 51
342.05613
  0
ARC
  5
327
100
AcDbEntity
  8
1
  6
SOLID
 62
     0
100
AcDbCircle
 10
2.010157
 20
-0.435191
 30
0.0
 40
0.056444
210
0.0
220
0.0
230
1.0
100
AcDbArc
 50
147.72145
 51
183.538453
  0
ARC
  5
328
100
AcDbEntity
  8
1
  6
SOLID
 62
     0
100
AcDbCircle
 10
2.013834
 20
-0.4003
 30
0.0
 40
0.051617
210
0.0
220
0.0
230
1.0
100
AcDbArc
 50
146.53745
 51
185.278184
  0
ARC
  5
329
100
AcDbEntity
  8
1
  6
SOLID
 62
     0
100
AcDbCircle
 10
2.034454
 20
-0.367976
 30
0.0
 40
0.063798
210
0.0
220
0.0
230
1.0
100
AcDbArc
 50
148.455695
 51
183.471462
  0
ARC
  5
32A
100
AcDbEntity
  8
1
  6
SOLID
 62
     0
100
AcDbCircle
 10
1.997233
 20
-0.326895
 30
0.0
 40
0.018801
210
0.0
220
0.0
230
1.0
100
AcDbArc
 50
116.053745
 51
204.18841
  0
ARC
  5
32B
100
AcDbEntity
  8
1
  6
SOLID
 62
     0
100
AcDbCircle
 10
1.961728
 20
-0.184488
 30
0.0
 40
0.128439
210
0.0
220
0.0
230
1.0
100
AcDbArc
 50
282.247951
 51
318.763163
  0
ARC
  5
32C
100
AcDbEntity
  8
1
  6
SOLID
 62
     0
100
AcDbCircle
 10
2.01123
 20
-0.236624
 30
0.0
 40
0.057226
210
0.0
220
0.0
230
1.0
100
AcDbArc
 50
325.361033
 51
396.316966
  0
LINE
  5
32D
100
AcDbEntity
  8
1
  6
SOLID
 62
     0
100
AcDbLine
 10
2.057341
 20
-0.202732
 30
0.0
 11
2.036359
 21
-0.170634
 31
0.0
  0
ARC
  5
32E
100
AcDbEntity
  8
1
  6
SOLID
 62
     0
100
AcDbCircle
 10
1.531477
 20
-0.600153
 30
0.0
 40
0.662866
210
0.0
220
0.0
230
1.0
100
AcDbArc
 50
40.388852
 51
52.82609
  0
ARC
  5
32F
100
AcDbEntity
  8
1
  6
SOLID
 62
     0
100
AcDbCircle
 10
1.872172
 20
-0.165747
 30
0.0
 40
0.111233
210
0.0
220
0.0
230
1.0
100
AcDbArc
 50
57.45855
 51
113.906576
  0
ARC
  5
330
100
AcDbEntity
  8
1
  6
SOLID
 62
     0
100
AcDbCircle
 10
1.819546
 20
-0.13969
 30
0.0
 40
0.076008
210
0.0
220
0.0
230
1.0
100
AcDbArc
 50
84.300339
 51
123.470091
  0
LINE
  5
331
100
AcDbEntity
  8
1
  6
SOLID
 62
     0
100
AcDbLine
 10
1.777628
 20
-0.076285
 30
0.0
 11
1.742334
 21
-0.088791
 31
0.0
  0
ARC
  5
332
100
AcDbEntity
  8
1
  6
SOLID
 62
     0
100
AcDbCircle
 10
1.916204
 20
-0.442092
 30
0.0
 40
0.393767
210
0.0
220
0.0
230
1.0
100
AcDbArc
 50
116.203183
 51
131.676932
  0
ARC
  5
333
100
AcDbEntity
  8
1
  6
SOLID
 62
     0
100
AcDbCircle
 10
1.69911
 20
-0.244849
 30
0.0
 40
0.106694
210
0.0
220
0.0
230
1.0
100
AcDbArc
 50
114.788555
 51
139.163489
  0
ARC
  5
334
100
AcDbEntity
  8
1
  6
SOLID
 62
     0
100
AcDbCircle
 10
1.669263
 20
-0.282542
 30
0.0
 40
0.118896
210
0.0
220
0.0
230
1.0
100
AcDbArc
 50
115.33441
 51
137.926146
  0
ARC
  5
335
100
AcDbEntity
  8
1
  6
SOLID
 62
     0
100
AcDbCircle
 10
1.613015
 20
-0.273491
 30
0.0
 40
0.077534
210
0.0
220
0.0
230
1.0
100
AcDbArc
 50
114.380609
 51
171.836659
  0
ARC
  5
336
100
AcDbEntity
  8
1
  6
SOLID
 62
     0
100
AcDbCircle
 10
1.587305
 20
-0.253932
 30
0.0
 40
0.05175
210
0.0
220
0.0
230
1.0
100
AcDbArc
 50
189.510169
 51
262.857446
  0
ARC
  5
337
100
AcDbEntity
  8
1
  6
SOLID
 62
     0
100
AcDbCircle
 10
1.556768
 20
-0.33115
 30
0.0
 40
0.035358
210
0.0
220
0.0
230
1.0
100
AcDbArc
 50
-20.429499
 51
47.026296
  0
ARC
  5
338
100
AcDbEntity
  8
1
  6
SOLID
 62
     0
100
AcDbCircle
 10
1.6294
 20
-0.369179
 30
0.0
 40
0.047116
210
0.0
220
0.0
230
1.0
100
AcDbArc
 50
146.962489
 51
185.949438
  0
ARC
  5
339
100
AcDbEntity
  8
1
  6
SOLID
 62
     0
100
AcDbCircle
 10
1.617268
 20
-0.399499
 30
0.0
 40
0.043049
210
0.0
220
0.0
230
1.0
100
AcDbArc
 50
143.780714
 51
186.289554
  0
ARC
  5
33A
100
AcDbEntity
  8
1
  6
SOLID
 62
     0
100
AcDbCircle
 10
1.514902
 20
-0.397332
 30
0.0
 40
0.059973
210
0.0
220
0.0
230
1.0
100
AcDbArc
 50
328.184514
 51
353.409588
  0
ARC
  5
33B
100
AcDbEntity
  8
1
  6
SOLID
 62
     0
100
AcDbCircle
 10
1.494597
 20
-0.429758
 30
0.0
 40
0.071271
210
0.0
220
0.0
230
1.0
100
AcDbArc
 50
-28.936933
 51
0.650719
  0
ARC
  5
33C
100
AcDbEntity
  8
1
  6
SOLID
 62
     0
100
AcDbCircle
 10
1.498662
 20
-0.468513
 30
0.0
 40
0.058464
210
0.0
220
0.0
230
1.0
100
AcDbArc
 50
-32.048986
 51
4.188859
  0
ARC
  5
33D
100
AcDbEntity
  8
1
  6
SOLID
 62
     0
100
AcDbCircle
 10
1.488661
 20
-0.504274
 30
0.0
 40
0.059744
210
0.0
220
0.0
230
1.0
100
AcDbArc
 50
-49.083753
 51
4.548638
  0
LINE
  5
33E
100
AcDbEntity
  8
1
  6
SOLID
 62
     0
100
AcDbLine
 10
1.52779
 20
-0.549421
 30
0.0
 11
0.968087
 21
-0.549421
 31
0.0
  0
LINE
  5
33F
100
AcDbEntity
  8
1
  6
SOLID
 62
     0
100
AcDbLine
 10
0.968087
 20
-0.549421
 30
0.0
 11
0.8415
 21
-0.545808
 31
0.0
  0
LINE
  5
340
100
AcDbEntity
  8
1
  6
SOLID
 62
     0
100
AcDbLine
 10
0.8415
 20
-0.545808
 30
0.0
 11
0.797035
 21
-0.543168
 31
0.0
  0
LINE
  5
341
100
AcDbEntity
  8
1
  6
SOLID
 62
     0
100
AcDbLine
 10
0.797035
 20
-0.543168
 30
0.0
 11
0.782862
 21
-0.539555
 31
0.0
  0
LINE
  5
342
100
AcDbEntity
  8
1
  6
SOLID
 62
     0
100
AcDbLine
 10
0.782862
 20
-0.539555
 30
0.0
 11
0.789532
 21
-0.518017
 31
0.0
  0
LINE
  5
343
100
AcDbEntity
  8
1
  6
SOLID
 62
     0
100
AcDbLine
 10
0.789532
 20
-0.518017
 30
0.0
 11
0.790921
 21
-0.501621
 31
0.0
  0
ARC
  5
344
100
AcDbEntity
  8
1
  6
SOLID
 62
     0
100
AcDbCircle
 10
0.831693
 20
-0.510099
 30
0.0
 40
0.041644
210
0.0
220
0.0
230
1.0
100
AcDbArc
 50
109.779971
 51
168.253555
  0
ARC
  5
345
100
AcDbEntity
  8
1
  6
SOLID
 62
     0
100
AcDbCircle
 10
0.886227
 20
-0.530075
 30
0.0
 40
0.090608
210
0.0
220
0.0
230
1.0
100
AcDbArc
 50
113.104699
 51
139.235565
  0
ARC
  5
346
100
AcDbEntity
  8
1
  6
SOLID
 62
     0
100
AcDbCircle
 10
0.182034
 20
0.289293
 30
0.0
 40
0.99439
210
0.0
220
0.0
230
1.0
100
AcDbArc
 50
312.253327
 51
319.602074
  0
LINE
  5
347
100
AcDbEntity
  8
1
  6
SOLID
 62
     0
100
AcDbLine
 10
0.939323
 20
-0.355164
 30
0.0
 11
0.948911
 21
-0.341269
 31
0.0
  0
ARC
  5
348
100
AcDbEntity
  8
1
  6
SOLID
 62
     0
100
AcDbCircle
 10
0.758168
 20
-0.011646
 30
0.0
 40
0.380834
210
0.0
220
0.0
230
1.0
100
AcDbArc
 50
300.056658
 51
313.647679
  0
ARC
  5
349
100
AcDbEntity
  8
1
  6
SOLID
 62
     0
100
AcDbCircle
 10
0.682322
 20
0.325206
 30
0.0
 40
0.699845
210
0.0
220
0.0
230
1.0
100
AcDbArc
 50
298.945195
 51
310.314383
  0
ARC
  5
34A
100
AcDbEntity
  8
1
  6
SOLID
 62
     0
100
AcDbCircle
 10
0.996633
 20
0.080524
 30
0.0
 40
0.320421
210
0.0
220
0.0
230
1.0
100
AcDbArc
 50
295.605178
 51
314.649641
  0
ARC
  5
34B
100
AcDbEntity
  8
1
  6
SOLID
 62
     0
100
AcDbCircle
 10
1.064174
 20
0.174468
 30
0.0
 40
0.358425
210
0.0
220
0.0
230
1.0
100
AcDbArc
 50
296.092088
 51
313.773245
  0
ARC
  5
34C
100
AcDbEntity
  8
1
  6
SOLID
 62
     0
100
AcDbCircle
 10
0.299833
 20
1.5601
 30
0.0
 40
1.93105
210
0.0
220
0.0
230
1.0
100
AcDbArc
 50
301.61599
 51
304.020035
  0
ARC
  5
34D
100
AcDbEntity
  8
1
  6
SOLID
 62
     0
100
AcDbCircle
 10
1.484867
 20
-0.136619
 30
0.0
 40
0.142134
210
0.0
220
0.0
230
1.0
100
AcDbArc
 50
113.758293
 51
137.412724
  0
LINE
  5
34E
100
AcDbEntity
  8
1
  6
SOLID
 62
     0
100
AcDbLine
 10
1.427605
 20
-0.006531
 30
0.0
 11
1.498332
 21
0.043076
 31
0.0
  0
ARC
  5
34F
100
AcDbEntity
  8
1
  6
SOLID
 62
     0
100
AcDbCircle
 10
1.581715
 20
-0.04208
 30
0.0
 40
0.119181
210
0.0
220
0.0
230
1.0
100
AcDbArc
 50
113.286846
 51
134.397523
  0
ARC
  5
350
100
AcDbEntity
  8
1
  6
SOLID
 62
     0
100
AcDbCircle
 10
1.358295
 20
0.3757
 30
0.0
 40
0.355158
210
0.0
220
0.0
230
1.0
100
AcDbArc
 50
299.762741
 51
313.605086
  0
ARC
  5
351
100
AcDbEntity
  8
1
  6
SOLID
 62
     0
100
AcDbCircle
 10
1.590436
 20
0.162026
 30
0.0
 40
0.045345
210
0.0
220
0.0
230
1.0
100
AcDbArc
 50
286.403465
 51
335.167693
  0
ARC
  5
352
100
AcDbEntity
  8
1
  6
SOLID
 62
     0
100
AcDbCircle
 10
1.82513
 20
0.283028
 30
0.0
 40
0.238895
210
0.0
220
0.0
230
1.0
100
AcDbArc
 50
207.725631
 51
215.88922
  0
ARC
  5
353
100
AcDbEntity
  8
1
  6
SOLID
 62
     0
100
AcDbCircle
 10
1.744574
 20
0.338971
 30
0.0
 40
0.212262
210
0.0
220
0.0
230
1.0
100
AcDbArc
 50
208.994544
 51
231.92145
  0
ARC
  5
354
100
AcDbEntity
  8
1
  6
SOLID
 62
     0
100
AcDbCircle
 10
1.670339
 20
0.385258
 30
0.0
 40
0.186196
210
0.0
220
0.0
230
1.0
100
AcDbArc
 50
208.023564
 51
233.242955
  0
ARC
  5
355
100
AcDbEntity
  8
1
  6
SOLID
 62
     0
100
AcDbCircle
 10
1.628171
 20
0.456196
 30
0.0
 40
0.200072
210
0.0
220
0.0
230
1.0
100
AcDbArc
 50
208.910697
 51
232.35514
  0
ARC
  5
356
100
AcDbEntity
  8
1
  6
SOLID
 62
     0
100
AcDbCircle
 10
1.573688
 20
0.516354
 30
0.0
 40
0.197913
210
0.0
220
0.0
230
1.0
100
AcDbArc
 50
208.701829
 51
232.43702
  0
ARC
  5
357
100
AcDbEntity
  8
1
  6
SOLID
 62
     0
100
AcDbCircle
 10
1.5115
 20
0.570469
 30
0.0
 40
0.186175
210
0.0
220
0.0
230
1.0
100
AcDbArc
 50
208.022226
 51
233.244403
  0
ARC
  5
358
100
AcDbEntity
  8
1
  6
SOLID
 62
     0
100
AcDbCircle
 10
1.445287
 20
0.618929
 30
0.0
 40
0.167651
210
0.0
220
0.0
230
1.0
100
AcDbArc
 50
207.185309
 51
234.171916
  0
ARC
  5
359
100
AcDbEntity
  8
1
  6
SOLID
 62
     0
100
AcDbCircle
 10
1.435472
 20
0.717677
 30
0.0
 40
0.223952
210
0.0
220
0.0
230
1.0
100
AcDbArc
 50
209.509868
 51
231.531392
  0
ARC
  5
35A
100
AcDbEntity
  8
1
  6
SOLID
 62
     0
100
AcDbCircle
 10
1.218203
 20
0.578056
 30
0.0
 40
0.036871
210
0.0
220
0.0
230
1.0
100
AcDbArc
 50
52.644851
 51
93.240528
  0
LINE
  5
35B
100
AcDbEntity
  8
1
  6
SOLID
 62
     0
100
AcDbLine
 10
1.216118
 20
0.614868
 30
0.0
 11
1.175405
 21
0.614868
 31
0.0
  0
LINE
  5
35C
100
AcDbEntity
  8
1
  6
SOLID
 62
     0
100
AcDbLine
 10
1.175405
 20
0.614868
 30
0.0
 11
1.164289
 21
0.619314
 31
0.0
  0
LINE
  5
35D
100
AcDbEntity
  8
1
  6
SOLID
 62
     0
100
AcDbLine
 10
1.164289
 20
0.619314
 30
0.0
 11
1.160259
 21
0.627652
 31
0.0
  0
ARC
  5
35E
100
AcDbEntity
  8
1
  6
SOLID
 62
     0
100
AcDbCircle
 10
1.258332
 20
0.639766
 30
0.0
 40
0.098818
210
0.0
220
0.0
230
1.0
100
AcDbArc
 50
155.242308
 51
187.041438
  0
ARC
  5
35F
100
AcDbEntity
  8
1
  6
SOLID
 62
     0
100
AcDbCircle
 10
1.234426
 20
0.689549
 30
0.0
 40
0.066363
210
0.0
220
0.0
230
1.0
100
AcDbArc
 50
150.034643
 51
187.271971
  0
ARC
  5
360
100
AcDbEntity
  8
1
  6
SOLID
 62
     0
100
AcDbCircle
 10
1.037348
 20
0.748318
 30
0.0
 40
0.141918
210
0.0
220
0.0
230
1.0
100
AcDbArc
 50
349.598533
 51
381.456739
  0
ARC
  5
361
100
AcDbEntity
  8
1
  6
SOLID
 62
     0
100
AcDbCircle
 10
1.209366
 20
0.811995
 30
0.0
 40
0.041632
210
0.0
220
0.0
230
1.0
100
AcDbArc
 50
149.217548
 51
196.41351
  0
ARC
  5
362
100
AcDbEntity
  8
1
  6
SOLID
 62
     0
100
AcDbCircle
 10
1.180672
 20
0.822724
 30
0.0
 40
0.012725
210
0.0
220
0.0
230
1.0
100
AcDbArc
 50
84.301873
 51
123.772809
  0
ARC
  5
363
100
AcDbEntity
  8
1
  6
SOLID
 62
     0
100
AcDbCircle
 10
-1.192934
 20
0.393066
 30
0.0
 40
0.415921
210
0.0
220
0.0
230
1.0
100
AcDbArc
 50
80.050941
 51
90.169384
  0
ARC
  5
364
100
AcDbEntity
  8
1
  6
SOLID
 62
     0
100
AcDbCircle
 10
-0.78915
 20
0.513142
 30
0.0
 40
0.436005
210
0.0
220
0.0
230
1.0
100
AcDbArc
 50
146.144
 51
165.132893
  0
ARC
  5
365
100
AcDbEntity
  8
1
  6
SOLID
 62
     0
100
AcDbCircle
 10
-0.712991
 20
0.567352
 30
0.0
 40
0.500899
210
0.0
220
0.0
230
1.0
100
AcDbArc
 50
173.389857
 51
187.267965
  0
ARC
  5
366
100
AcDbEntity
  8
1
  6
SOLID
 62
     0
100
AcDbCircle
 10
-1.256291
 20
0.47786
 30
0.0
 40
0.053271
210
0.0
220
0.0
230
1.0
100
AcDbArc
 50
-10.368654
 51
29.365708
  0
ARC
  5
367
100
AcDbEntity
  8
1
  6
SOLID
 62
     0
100
AcDbCircle
 10
-1.32048
 20
1.75189
 30
0.0
 40
1.288902
210
0.0
220
0.0
230
1.0
100
AcDbArc
 50
266.848568
 51
275.189906
  0
ARC
  5
368
100
AcDbEntity
  8
1
  6
SOLID
 62
     0
100
AcDbCircle
 10
-1.388774
 20
0.629476
 30
0.0
 40
0.164559
210
0.0
220
0.0
230
1.0
100
AcDbArc
 50
249.618351
 51
269.107404
  0
LINE
  5
369
100
AcDbEntity
  8
1
  6
SOLID
 62
     0
100
AcDbLine
 10
-1.446085
 20
0.47522
 30
0.0
 11
-1.45081
 21
0.480917
 31
0.0
  0
ARC
  5
36A
100
AcDbEntity
  8
1
  6
SOLID
 62
     0
100
AcDbCircle
 10
-1.35936
 20
0.483621
 30
0.0
 40
0.091489
210
0.0
220
0.0
230
1.0
100
AcDbArc
 50
154.876906
 51
181.693496
  0
ARC
  5
36B
100
AcDbEntity
  8
1
  6
SOLID
 62
     0
100
AcDbCircle
 10
-1.535338
 20
0.525651
 30
0.0
 40
0.093198
210
0.0
220
0.0
230
1.0
100
AcDbArc
 50
358.040647
 51
417.404096
  0
ARC
  5
36C
100
AcDbEntity
  8
1
  6
SOLID
 62
     0
100
AcDbCircle
 10
-1.680546
 20
-4.180792
 30
0.0
 40
4.788949
210
0.0
220
0.0
230
1.0
100
AcDbArc
 50
87.66138
 51
92.983255
  0
ARC
  5
36D
100
AcDbEntity
  8
1
  6
SOLID
 62
     0
100
AcDbCircle
 10
-1.923082
 20
0.522615
 30
0.0
 40
0.079335
210
0.0
220
0.0
230
1.0
100
AcDbArc
 50
94.844314
 51
133.389377
  0
ARC
  5
36E
100
AcDbEntity
  8
1
  6
SOLID
 62
     0
100
AcDbCircle
 10
-1.811938
 20
0.353898
 30
0.0
 40
0.280502
210
0.0
220
0.0
230
1.0
100
AcDbArc
 50
126.194247
 51
141.374544
  0
ARC
  5
36F
100
AcDbEntity
  8
1
  6
SOLID
 62
     0
100
AcDbCircle
 10
-1.855169
 20
0.432397
 30
0.0
 40
0.200687
210
0.0
220
0.0
230
1.0
100
AcDbArc
 50
151.227328
 51
166.947483
  0
ARC
  5
370
100
AcDbEntity
  8
1
  6
SOLID
 62
     0
100
AcDbCircle
 10
-2.109235
 20
0.473684
 30
0.0
 40
0.058703
210
0.0
220
0.0
230
1.0
100
AcDbArc
 50
-31.692696
 51
3.943027
  0
ARC
  5
371
100
AcDbEntity
  8
1
  6
SOLID
 62
     0
100
AcDbCircle
 10
-2.119518
 20
0.433968
 30
0.0
 40
0.060883
210
0.0
220
0.0
230
1.0
100
AcDbArc
 50
-31.528691
 51
8.382556
  0
ARC
  5
372
100
AcDbEntity
  8
1
  6
SOLID
 62
     0
100
AcDbCircle
 10
-2.131299
 20
0.398266
 30
0.0
 40
0.063793
210
0.0
220
0.0
230
1.0
100
AcDbArc
 50
-31.545573
 51
3.472995
  0
ARC
  5
373
100
AcDbEntity
  8
1
  6
SOLID
 62
     0
100
AcDbCircle
 10
-2.14589
 20
0.363736
 30
0.0
 40
0.068967
210
0.0
220
0.0
230
1.0
100
AcDbArc
 50
-28.481225
 51
0.960015
  0
ARC
  5
374
100
AcDbEntity
  8
1
  6
SOLID
 62
     0
100
AcDbCircle
 10
-1.837732
 20
0.306698
 30
0.0
 40
0.248713
210
0.0
220
0.0
230
1.0
100
AcDbArc
 50
174.427855
 51
188.455899
  0
ARC
  5
375
100
AcDbEntity
  8
1
  6
SOLID
 62
     0
100
AcDbCircle
 10
-2.028536
 20
0.283563
 30
0.0
 40
0.056818
210
0.0
220
0.0
230
1.0
100
AcDbArc
 50
193.680819
 51
249.784195
  0
LINE
  5
376
100
AcDbEntity
  8
1
  6
SOLID
 62
     0
100
AcDbLine
 10
-2.048169
 20
0.230245
 30
0.0
 11
-2.016627
 21
0.220241
 31
0.0
  0
LINE
  5
377
100
AcDbEntity
  8
1
  6
SOLID
 62
     0
100
AcDbLine
 10
-2.016627
 20
0.220241
 30
0.0
 11
-1.691199
 21
0.218018
 31
0.0
  0
ARC
  5
378
100
AcDbEntity
  8
1
  6
SOLID
 62
     0
100
AcDbCircle
 10
-1.694384
 20
-0.663953
 30
0.0
 40
0.881977
210
0.0
220
0.0
230
1.0
100
AcDbArc
 50
83.323804
 51
89.793068
  0
LINE
  5
379
100
AcDbEntity
  8
1
  6
SOLID
 62
     0
100
AcDbLine
 10
-1.591847
 20
0.212043
 30
0.0
 11
-1.583093
 21
0.208708
 31
0.0
  0
ARC
  5
37A
100
AcDbEntity
  8
1
  6
SOLID
 62
     0
100
AcDbCircle
 10
-1.64243
 20
0.210754
 30
0.0
 40
0.059372
210
0.0
220
0.0
230
1.0
100
AcDbArc
 50
328.425538
 51
358.024637
  0
ARC
  5
37B
100
AcDbEntity
  8
1
  6
SOLID
 62
     0
100
AcDbCircle
 10
-1.648228
 20
0.175235
 30
0.0
 40
0.056555
210
0.0
220
0.0
230
1.0
100
AcDbArc
 50
-31.573988
 51
4.494226
  0
ARC
  5
37C
100
AcDbEntity
  8
1
  6
SOLID
 62
     0
100
AcDbCircle
 10
-1.674523
 20
0.137409
 30
0.0
 40
0.074929
210
0.0
220
0.0
230
1.0
100
AcDbArc
 50
-29.787893
 51
6.293326
  0
ARC
  5
37D
100
AcDbEntity
  8
1
  6
SOLID
 62
     0
100
AcDbCircle
 10
-1.676512
 20
0.096759
 30
0.0
 40
0.067105
210
0.0
220
0.0
230
1.0
100
AcDbArc
 50
-29.983263
 51
2.926768
  0
ARC
  5
37E
100
AcDbEntity
  8
1
  6
SOLID
 62
     0
100
AcDbCircle
 10
-1.685223
 20
0.060261
 30
0.0
 40
0.066901
210
0.0
220
0.0
230
1.0
100
AcDbArc
 50
-29.992226
 51
2.538213
  0
ARC
  5
37F
100
AcDbEntity
  8
1
  6
SOLID
 62
     0
100
AcDbCircle
 10
-1.881908
 20
5.585702
 30
0.0
 40
5.564713
210
0.0
220
0.0
230
1.0
100
AcDbArc
 50
268.722937
 51
272.622629
  0
ARC
  5
380
100
AcDbEntity
  8
1
  6
SOLID
 62
     0
100
AcDbCircle
 10
-2.008812
 20
-0.13191
 30
0.0
 40
0.154309
210
0.0
220
0.0
230
1.0
100
AcDbArc
 50
88.928865
 51
128.232243
  0
ARC
  5
381
100
AcDbEntity
  8
1
  6
SOLID
 62
     0
100
AcDbCircle
 10
-1.990122
 20
-0.170974
 30
0.0
 40
0.19679
210
0.0
220
0.0
230
1.0
100
AcDbArc
 50
125.467242
 51
151.007215
  0
ARC
  5
382
100
AcDbEntity
  8
1
  6
SOLID
 62
     0
100
AcDbCircle
 10
-2.138145
 20
-0.10389
 30
0.0
 40
0.037175
210
0.0
220
0.0
230
1.0
100
AcDbArc
 50
130.42305
 51
188.670445
  0
ARC
  5
383
100
AcDbEntity
  8
1
  6
SOLID
 62
     0
100
AcDbCircle
 10
-2.093985
 20
-0.152023
 30
0.0
 40
0.091406
210
0.0
220
0.0
230
1.0
100
AcDbArc
 50
152.272497
 51
183.91691
  0
ARC
  5
384
100
AcDbEntity
  8
1
  6
SOLID
 62
     0
100
AcDbCircle
 10
-2.157299
 20
-0.179007
 30
0.0
 40
0.034747
210
0.0
220
0.0
230
1.0
100
AcDbArc
 50
143.354319
 51
187.988277
  0
ARC
  5
385
100
AcDbEntity
  8
1
  6
SOLID
 62
     0
100
AcDbCircle
 10
-2.260315
 20
-0.173271
 30
0.0
 40
0.069415
210
0.0
220
0.0
230
1.0
100
AcDbArc
 50
329.569212
 51
351.246494
  0
ARC
  5
386
100
AcDbEntity
  8
1
  6
SOLID
 62
     0
100
AcDbCircle
 10
-2.266544
 20
-0.212046
 30
0.0
 40
0.066181
210
0.0
220
0.0
230
1.0
100
AcDbArc
 50
-29.97646
 51
3.132629
  0
LINE
  5
387
100
AcDbEntity
  8
1
  6
SOLID
 62
     0
100
AcDbLine
 10
-2.209216
 20
-0.245113
 30
0.0
 11
-2.207132
 21
-0.313756
 31
0.0
  0
LINE
  5
388
100
AcDbEntity
  8
1
  6
SOLID
 62
     0
100
AcDbLine
 10
-2.207132
 20
-0.313756
 30
0.0
 11
-2.201157
 21
-0.328624
 31
0.0
  0
LINE
  5
389
100
AcDbEntity
  8
1
  6
SOLID
 62
     0
100
AcDbLine
 10
-2.201157
 20
-0.328624
 30
0.0
 11
-2.193653
 21
-0.336128
 31
0.0
  0
LINE
  5
38A
100
AcDbEntity
  8
1
  6
SOLID
 62
     0
100
AcDbLine
 10
-2.193653
 20
-0.336128
 30
0.0
 11
-2.185177
 21
-0.340157
 31
0.0
  0
ARC
  5
38B
100
AcDbEntity
  8
1
  6
SOLID
 62
     0
100
AcDbCircle
 10
-2.156382
 20
-0.321128
 30
0.0
 40
0.034514
210
0.0
220
0.0
230
1.0
100
AcDbArc
 50
213.458151
 51
278.047241
  0
ARC
  5
38C
100
AcDbEntity
  8
1
  6
SOLID
 62
     0
100
AcDbCircle
 10
-2.157163
 20
-0.406561
 30
0.0
 40
0.051564
210
0.0
220
0.0
230
1.0
100
AcDbArc
 50
59.849714
 51
83.75178
  0
ARC
  5
38D
100
AcDbEntity
  8
1
  6
SOLID
 62
     0
100
AcDbCircle
 10
-2.06276
 20
0.517749
 30
0.0
 40
0.882385
210
0.0
220
0.0
230
1.0
100
AcDbArc
 50
265.547373
 51
272.075678
  0
ARC
  5
38E
100
AcDbEntity
  8
1
  6
SOLID
 62
     0
100
AcDbCircle
 10
-2.034991
 20
-0.465879
 30
0.0
 40
0.101908
210
0.0
220
0.0
230
1.0
100
AcDbArc
 50
70.139257
 51
87.643048
  0
ARC
  5
38F
100
AcDbEntity
  8
1
  6
SOLID
 62
     0
100
AcDbCircle
 10
-2.008244
 20
-0.378979
 30
0.0
 40
0.011918
210
0.0
220
0.0
230
1.0
100
AcDbArc
 50
-45.918149
 51
48.646277
  0
ARC
  5
390
100
AcDbEntity
  8
1
  6
SOLID
 62
     0
100
AcDbCircle
 10
-1.972075
 20
-0.408279
 30
0.0
 40
0.034746
210
0.0
220
0.0
230
1.0
100
AcDbArc
 50
143.353827
 51
187.988523
  0
ARC
  5
391
100
AcDbEntity
  8
1
  6
SOLID
 62
     0
100
AcDbCircle
 10
-2.101873
 20
-0.393262
 30
0.0
 40
0.097432
210
0.0
220
0.0
230
1.0
100
AcDbArc
 50
332.771259
 51
348.247222
  0
ARC
  5
392
100
AcDbEntity
  8
1
  6
SOLID
 62
     0
100
AcDbCircle
 10
-2.072508
 20
-0.442369
 30
0.0
 40
0.057449
210
0.0
220
0.0
230
1.0
100
AcDbArc
 50
-32.380413
 51
4.520647
  0
ARC
  5
393
100
AcDbEntity
  8
1
  6
SOLID
 62
     0
100
AcDbCircle
 10
-2.078744
 20
-0.477041
 30
0.0
 40
0.054892
210
0.0
220
0.0
230
1.0
100
AcDbArc
 50
-32.265859
 51
4.080296
  0
ARC
  5
394
100
AcDbEntity
  8
1
  6
SOLID
 62
     0
100
AcDbCircle
 10
-2.100467
 20
-0.509859
 30
0.0
 40
0.068228
210
0.0
220
0.0
230
1.0
100
AcDbArc
 50
-30.432907
 51
2.951876
  0
LINE
  5
395
100
AcDbEntity
  8
1
  6
SOLID
 62
     0
100
AcDbLine
 10
-2.041639
 20
-0.544418
 30
0.0
 11
-2.041778
 21
-0.55484
 31
0.0
  0
ARC
  5
396
100
AcDbEntity
  8
1
  6
SOLID
 62
     0
100
AcDbCircle
 10
-2.449367
 20
14.213838
 30
0.0
 40
14.774302
210
0.0
220
0.0
230
1.0
100
AcDbArc
 50
268.421069
 51
271.580862
  0
ARC
  5
397
100
AcDbEntity
  8
1
  6
SOLID
 62
     0
100
AcDbCircle
 10
-2.871817
 20
-0.355767
 30
0.0
 40
0.199664
210
0.0
220
0.0
230
1.0
100
AcDbArc
 50
255.264814
 51
274.411155
  0
ARC
  5
398
100
AcDbEntity
  8
1
  6
SOLID
 62
     0
100
AcDbCircle
 10
-2.944787
 20
-0.527208
 30
0.0
 40
0.031004
210
0.0
220
0.0
230
1.0
100
AcDbArc
 50
315.690988
 51
370.102796
  0
ARC
  5
399
100
AcDbEntity
  8
1
  6
SOLID
 62
     0
100
AcDbCircle
 10
-2.991987
 20
-0.479913
 30
0.0
 40
0.088276
210
0.0
220
0.0
230
1.0
100
AcDbArc
 50
331.696089
 51
364.49353
  0
ARC
  5
39A
100
AcDbEntity
  8
1
  6
SOLID
 62
     0
100
AcDbCircle
 10
-2.944843
 20
-0.446981
 30
0.0
 40
0.04844
210
0.0
220
0.0
230
1.0
100
AcDbArc
 50
327.515658
 51
365.39463
  0
ARC
  5
39B
100
AcDbEntity
  8
1
  6
SOLID
 62
     0
100
AcDbCircle
 10
-2.931804
 20
-0.416847
 30
0.0
 40
0.043502
210
0.0
220
0.0
230
1.0
100
AcDbArc
 50
323.984259
 51
366.217664
  0
ARC
  5
39C
100
AcDbEntity
  8
1
  6
SOLID
 62
     0
100
AcDbCircle
 10
-2.851205
 20
-0.415172
 30
0.0
 40
0.037477
210
0.0
220
0.0
230
1.0
100
AcDbArc
 50
144.95887
 51
175.351856
  0
ARC
  5
39D
100
AcDbEntity
  8
1
  6
SOLID
 62
     0
100
AcDbCircle
 10
-2.913536
 20
-0.381047
 30
0.0
 40
0.034066
210
0.0
220
0.0
230
1.0
100
AcDbArc
 50
338.279271
 51
368.035386
  0
ARC
  5
39E
100
AcDbEntity
  8
1
  6
SOLID
 62
     0
100
AcDbCircle
 10
-2.790171
 20
-0.985045
 30
0.0
 40
0.615323
210
0.0
220
0.0
230
1.0
100
AcDbArc
 50
85.740017
 51
98.375959
  0
ARC
  5
39F
100
AcDbEntity
  8
1
  6
SOLID
 62
     0
100
AcDbCircle
 10
-2.749457
 20
-0.30183
 30
0.0
 40
0.069771
210
0.0
220
0.0
230
1.0
100
AcDbArc
 50
274.10407
 51
307.971437
  0
ARC
  5
3A0
100
AcDbEntity
  8
1
  6
SOLID
 62
     0
100
AcDbCircle
 10
-2.834952
 20
-0.133491
 30
0.0
 40
0.257631
210
0.0
220
0.0
230
1.0
100
AcDbArc
 50
299.899208
 51
316.964911
  0
ARC
  5
3A1
100
AcDbEntity
  8
1
  6
SOLID
 62
     0
100
AcDbCircle
 10
-2.532152
 20
-0.364589
 30
0.0
 40
0.127136
210
0.0
220
0.0
230
1.0
100
AcDbArc
 50
137.441004
 51
154.226997
  0
ARC
  5
3A2
100
AcDbEntity
  8
1
  6
SOLID
 62
     0
100
AcDbCircle
 10
-2.532864
 20
-0.280542
 30
0.0
 40
0.092954
210
0.0
220
0.0
230
1.0
100
AcDbArc
 50
152.396168
 51
178.80352
  0
ARC
  5
3A3
100
AcDbEntity
  8
1
  6
SOLID
 62
     0
100
AcDbCircle
 10
-2.556271
 20
-0.233364
 30
0.0
 40
0.059109
210
0.0
220
0.0
230
1.0
100
AcDbArc
 50
148.155563
 51
183.984423
  0
ARC
  5
3A4
100
AcDbEntity
  8
1
  6
SOLID
 62
     0
100
AcDbCircle
 10
-2.551728
 20
-0.198271
 30
0.0
 40
0.054894
210
0.0
220
0.0
230
1.0
100
AcDbArc
 50
147.735014
 51
184.079855
  0
ARC
  5
3A5
100
AcDbEntity
  8
1
  6
SOLID
 62
     0
100
AcDbCircle
 10
-2.53447
 20
-0.165102
 30
0.0
 40
0.063793
210
0.0
220
0.0
230
1.0
100
AcDbArc
 50
148.454411
 51
183.472992
  0
ARC
  5
3A6
100
AcDbEntity
  8
1
  6
SOLID
 62
     0
100
AcDbCircle
 10
-2.50179
 20
-0.133269
 30
0.0
 40
0.08706
210
0.0
220
0.0
230
1.0
100
AcDbArc
 50
153.649999
 51
178.985667
  0
ARC
  5
3A7
100
AcDbEntity
  8
1
  6
SOLID
 62
     0
100
AcDbCircle
 10
-2.521242
 20
-0.09059
 30
0.0
 40
0.058701
210
0.0
220
0.0
230
1.0
100
AcDbArc
 50
148.306496
 51
183.943374
  0
ARC
  5
3A8
100
AcDbEntity
  8
1
  6
SOLID
 62
     0
100
AcDbCircle
 10
-2.501773
 20
-0.051654
 30
0.0
 40
0.069886
210
0.0
220
0.0
230
1.0
100
AcDbArc
 50
150.227842
 51
186.652131
  0
ARC
  5
3A9
100
AcDbEntity
  8
1
  6
SOLID
 62
     0
100
AcDbCircle
 10
-2.501942
 20
-0.013427
 30
0.0
 40
0.060596
210
0.0
220
0.0
230
1.0
100
AcDbArc
 50
148.38029
 51
183.334886
  0
ARC
  5
3AA
100
AcDbEntity
  8
1
  6
SOLID
 62
     0
100
AcDbCircle
 10
-2.502141
 20
0.023089
 30
0.0
 40
0.05162
210
0.0
220
0.0
230
1.0
100
AcDbArc
 50
146.538065
 51
185.276668
  0
ARC
  5
3AB
100
AcDbEntity
  8
1
  6
SOLID
 62
     0
100
AcDbCircle
 10
-2.481529
 20
0.055416
 30
0.0
 40
0.063793
210
0.0
220
0.0
230
1.0
100
AcDbArc
 50
148.454411
 51
183.472992
  0
ARC
  5
3AC
100
AcDbEntity
  8
1
  6
SOLID
 62
     0
100
AcDbCircle
 10
-2.470155
 20
0.092437
 30
0.0
 40
0.065841
210
0.0
220
0.0
230
1.0
100
AcDbArc
 50
149.461522
 51
183.174226
  0
ARC
  5
3AD
100
AcDbEntity
  8
1
  6
SOLID
 62
     0
100
AcDbCircle
 10
-2.474335
 20
0.13023
 30
0.0
 40
0.052707
210
0.0
220
0.0
230
1.0
100
AcDbArc
 50
146.424096
 51
184.721605
  0
ARC
  5
3AE
100
AcDbEntity
  8
1
  6
SOLID
 62
     0
100
AcDbCircle
 10
-2.452507
 20
0.163025
 30
0.0
 40
0.065841
210
0.0
220
0.0
230
1.0
100
AcDbArc
 50
149.461591
 51
183.173721
  0
ARC
  5
3AF
100
AcDbEntity
  8
1
  6
SOLID
 62
     0
100
AcDbCircle
 10
-2.456225
 20
0.200699
 30
0.0
 40
0.053159
210
0.0
220
0.0
230
1.0
100
AcDbArc
 50
146.59302
 51
184.552763
  0
ARC
  5
3B0
100
AcDbEntity
  8
1
  6
SOLID
 62
     0
100
AcDbCircle
 10
-2.442288
 20
0.234237
 30
0.0
 40
0.058469
210
0.0
220
0.0
230
1.0
100
AcDbArc
 50
147.952706
 51
184.187171
  0
ARC
  5
3B1
100
AcDbEntity
  8
1
  6
SOLID
 62
     0
100
AcDbCircle
 10
-2.435755
 20
0.269568
 30
0.0
 40
0.056257
210
0.0
220
0.0
230
1.0
100
AcDbArc
 50
148.088709
 51
184.389809
  0
ARC
  5
3B2
100
AcDbEntity
  8
1
  6
SOLID
 62
     0
100
AcDbCircle
 10
-2.411179
 20
0.308046
 30
0.0
 40
0.072857
210
0.0
220
0.0
230
1.0
100
AcDbArc
 50
149.882139
 51
186.890245
  0
ARC
  5
3B3
100
AcDbEntity
  8
1
  6
SOLID
 62
     0
100
AcDbCircle
 10
-2.416909
 20
0.348936
 30
0.0
 40
0.057454
210
0.0
220
0.0
230
1.0
100
AcDbArc
 50
147.391169
 51
184.324088
  0
ARC
  5
3B4
100
AcDbEntity
  8
1
  6
SOLID
 62
     0
100
AcDbCircle
 10
-2.406993
 20
0.384167
 30
0.0
 40
0.05847
210
0.0
220
0.0
230
1.0
100
AcDbArc
 50
147.953034
 51
184.186843
  0
ARC
  5
3B5
100
AcDbEntity
  8
1
  6
SOLID
 62
     0
100
AcDbCircle
 10
-2.39873
 20
0.41939
 30
0.0
 40
0.057975
210
0.0
220
0.0
230
1.0
100
AcDbArc
 50
147.562976
 51
184.152282
  0
ARC
  5
3B6
100
AcDbEntity
  8
1
  6
SOLID
 62
     0
100
AcDbCircle
 10
-2.380852
 20
0.45393
 30
0.0
 40
0.066897
210
0.0
220
0.0
230
1.0
100
AcDbArc
 50
150.205644
 51
182.950674
  0
ARC
  5
3B7
100
AcDbEntity
  8
1
  6
SOLID
 62
     0
100
AcDbCircle
 10
-2.341686
 20
0.494942
 30
0.0
 40
0.09753
210
0.0
220
0.0
230
1.0
100
AcDbArc
 50
163.694148
 51
184.57085
  0
LINE
  5
3B8
100
AcDbEntity
  8
1
  6
SOLID
 62
     0
100
AcDbLine
 10
-2.500879
 20
0.597221
 30
0.0
 11
-2.595228
 21
0.597221
 31
0.0
  0
LINE
  5
3B9
100
AcDbEntity
  8
1
  6
SOLID
 62
     0
100
AcDbLine
 10
-2.595228
 20
0.597221
 30
0.0
 11
-2.61482
 21
0.602223
 31
0.0
  0
LINE
  5
3BA
100
AcDbEntity
  8
1
  6
SOLID
 62
     0
100
AcDbLine
 10
-2.61482
 20
0.602223
 30
0.0
 11
-2.621629
 21
0.605975
 31
0.0
  0
LINE
  5
3BB
100
AcDbEntity
  8
1
  6
SOLID
 62
     0
100
AcDbLine
 10
-2.621629
 20
0.605975
 30
0.0
 11
-2.623991
 21
0.610977
 31
0.0
  0
ARC
  5
3BC
100
AcDbEntity
  8
1
  6
SOLID
 62
     0
100
AcDbCircle
 10
-2.558607
 20
0.613103
 30
0.0
 40
0.065419
210
0.0
220
0.0
230
1.0
100
AcDbArc
 50
149.957804
 51
181.862147
  0
LINE
  5
3BD
100
AcDbEntity
  8
1
  6
SOLID
 62
     0
100
AcDbLine
 10
-2.615237
 20
0.645855
 30
0.0
 11
-2.613709
 21
0.671283
 31
0.0
  0
ARC
  5
3BE
100
AcDbEntity
  8
1
  6
SOLID
 62
     0
100
AcDbCircle
 10
-2.644882
 20
0.694439
 30
0.0
 40
0.038832
210
0.0
220
0.0
230
1.0
100
AcDbArc
 50
323.394759
 51
367.062583
  0
ARC
  5
3BF
100
AcDbEntity
  8
1
  6
SOLID
 62
     0
100
AcDbCircle
 10
-2.548685
 20
0.691151
 30
0.0
 40
0.05822
210
0.0
220
0.0
230
1.0
100
AcDbArc
 50
148.162912
 51
172.040417
  0
ARC
  5
3C0
100
AcDbEntity
  8
1
  6
SOLID
 62
     0
100
AcDbCircle
 10
-2.533739
 20
0.725668
 30
0.0
 40
0.064519
210
0.0
220
0.0
230
1.0
100
AcDbArc
 50
148.64511
 51
183.382397
  0
ARC
  5
3C1
100
AcDbEntity
  8
1
  6
SOLID
 62
     0
100
AcDbCircle
 10
-2.507481
 20
0.760048
 30
0.0
 40
0.08136
210
0.0
220
0.0
230
1.0
100
AcDbArc
 50
152.740191
 51
180.569233
  0
ARC
  5
3C2
100
AcDbEntity
  8
1
  6
SOLID
 62
     0
100
AcDbCircle
 10
-2.568299
 20
0.797602
 30
0.0
 40
0.011509
210
0.0
220
0.0
230
1.0
100
AcDbArc
 50
81.529817
 51
181.43694
  0
ARC
  5
3C3
100
AcDbEntity
  8
1
  6
SOLID
 62
     0
100
AcDbCircle
 10
1.13978
 20
0.268101
 30
0.0
 40
0.22742
210
0.0
220
0.0
230
1.0
100
AcDbArc
 50
139.883859
 51
154.695216
  0
ARC
  5
3C4
100
AcDbEntity
  8
1
  6
SOLID
 62
     0
100
AcDbCircle
 10
1.281041
 20
0.62977
 30
0.0
 40
0.436178
210
0.0
220
0.0
230
1.0
100
AcDbArc
 50
217.323642
 51
227.659941
  0
ARC
  5
3C5
100
AcDbEntity
  8
1
  6
SOLID
 62
     0
100
AcDbCircle
 10
1.121726
 20
0.380892
 30
0.0
 40
0.153254
210
0.0
220
0.0
230
1.0
100
AcDbArc
 50
208.670926
 51
229.061209
  0
LINE
  5
3C6
100
AcDbEntity
  8
1
  6
SOLID
 62
     0
100
AcDbLine
 10
1.021306
 20
0.265123
 30
0.0
 11
1.071468
 21
0.179389
 31
0.0
  0
LINE
  5
3C7
100
AcDbEntity
  8
1
  6
SOLID
 62
     0
100
AcDbLine
 10
1.071468
 20
0.179389
 30
0.0
 11
1.078416
 21
0.162575
 31
0.0
  0
ARC
  5
3C8
100
AcDbEntity
  8
1
  6
SOLID
 62
     0
100
AcDbCircle
 10
0.994613
 20
0.117711
 30
0.0
 40
0.095056
210
0.0
220
0.0
230
1.0
100
AcDbArc
 50
-4.370192
 51
28.162487
  0
ARC
  5
3C9
100
AcDbEntity
  8
1
  6
SOLID
 62
     0
100
AcDbCircle
 10
1.125162
 20
0.112314
 30
0.0
 40
0.035817
210
0.0
220
0.0
230
1.0
100
AcDbArc
 50
182.954198
 51
215.663711
  0
ARC
  5
3CA
100
AcDbEntity
  8
1
  6
SOLID
 62
     0
100
AcDbCircle
 10
1.00105
 20
0.069296
 30
0.0
 40
0.097557
210
0.0
220
0.0
230
1.0
100
AcDbArc
 50
-24.90906
 51
13.114234
  0
ARC
  5
3CB
100
AcDbEntity
  8
1
  6
SOLID
 62
     0
100
AcDbCircle
 10
0.994224
 20
0.017525
 30
0.0
 40
0.095904
210
0.0
220
0.0
230
1.0
100
AcDbArc
 50
-24.12714
 51
6.39525
  0
LINE
  5
3CC
100
AcDbEntity
  8
1
  6
SOLID
 62
     0
100
AcDbLine
 10
1.081751
 20
-0.021677
 30
0.0
 11
1.086475
 21
-0.027374
 31
0.0
  0
LINE
  5
3CD
100
AcDbEntity
  8
1
  6
SOLID
 62
     0
100
AcDbLine
 10
1.086475
 20
-0.027374
 30
0.0
 11
1.092589
 21
-0.027096
 31
0.0
  0
ARC
  5
3CE
100
AcDbEntity
  8
1
  6
SOLID
 62
     0
100
AcDbCircle
 10
1.185899
 20
-0.129222
 30
0.0
 40
0.138335
210
0.0
220
0.0
230
1.0
100
AcDbArc
 50
114.353134
 51
132.417328
  0
LINE
  5
3CF
100
AcDbEntity
  8
1
  6
SOLID
 62
     0
100
AcDbLine
 10
1.128856
 20
-0.003196
 30
0.0
 11
1.230291
 21
0.065447
 31
0.0
  0
LINE
  5
3D0
100
AcDbEntity
  8
1
  6
SOLID
 62
     0
100
AcDbLine
 10
1.230291
 20
0.065447
 30
0.0
 11
1.25044
 21
0.083233
 31
0.0
  0
LINE
  5
3D1
100
AcDbEntity
  8
1
  6
SOLID
 62
     0
100
AcDbLine
 10
1.25044
 20
0.083233
 30
0.0
 11
1.267253
 21
0.092126
 31
0.0
  0
LINE
  5
3D2
100
AcDbEntity
  8
1
  6
SOLID
 62
     0
100
AcDbLine
 10
1.267253
 20
0.092126
 30
0.0
 11
1.346456
 21
0.147291
 31
0.0
  0
LINE
  5
3D3
100
AcDbEntity
  8
1
  6
SOLID
 62
     0
100
AcDbLine
 10
1.346456
 20
0.147291
 30
0.0
 11
1.355071
 21
0.160769
 31
0.0
  0
LINE
  5
3D4
100
AcDbEntity
  8
1
  6
SOLID
 62
     0
100
AcDbLine
 10
1.355071
 20
0.160769
 30
0.0
 11
1.353682
 21
0.172302
 31
0.0
  0
ARC
  5
3D5
100
AcDbEntity
  8
1
  6
SOLID
 62
     0
100
AcDbCircle
 10
-0.125109
 20
-0.950477
 30
0.0
 40
1.856732
210
0.0
220
0.0
230
1.0
100
AcDbArc
 50
37.207763
 51
40.568581
  0
ARC
  5
3D6
100
AcDbEntity
  8
1
  6
SOLID
 62
     0
100
AcDbCircle
 10
1.163786
 20
0.190738
 30
0.0
 40
0.138451
210
0.0
220
0.0
230
1.0
100
AcDbArc
 50
28.623578
 51
50.363288
  0
ARC
  5
3D7
100
AcDbEntity
  8
1
  6
SOLID
 62
     0
100
AcDbCircle
 10
1.13677
 20
0.243899
 30
0.0
 40
0.127125
210
0.0
220
0.0
230
1.0
100
AcDbArc
 50
24.868919
 51
51.778153
  0
ARC
  5
3D8
100
AcDbEntity
  8
1
  6
SOLID
 62
     0
100
AcDbCircle
 10
1.15799
 20
0.320105
 30
0.0
 40
0.062118
210
0.0
220
0.0
230
1.0
100
AcDbArc
 50
22.393371
 51
47.44545
  0
ARC
  5
3D9
100
AcDbEntity
  8
1
  6
SOLID
 62
     0
100
AcDbCircle
 10
1.285922
 20
0.463598
 30
0.0
 40
0.130133
210
0.0
220
0.0
230
1.0
100
AcDbArc
 50
207.012614
 51
228.679597
  0
LINE
  5
3DA
100
AcDbEntity
  8
1
  6
SOLID
 62
     0
100
AcDbLine
 10
1.169986
 20
0.404493
 30
0.0
 11
1.1415
 21
0.427837
 31
0.0
  0
ARC
  5
3DB
100
AcDbEntity
  8
1
  6
SOLID
 62
     0
100
AcDbCircle
 10
1.075821
 20
-0.566851
 30
0.0
 40
0.996855
210
0.0
220
0.0
230
1.0
100
AcDbArc
 50
86.222245
 51
93.526924
  0
ARC
  5
3DC
100
AcDbEntity
  8
1
  6
SOLID
 62
     0
100
AcDbCircle
 10
1.024888
 20
0.337596
 30
0.0
 40
0.091113
210
0.0
220
0.0
230
1.0
100
AcDbArc
 50
96.548091
 51
113.911371
  0
ARC
  5
3DD
100
AcDbEntity
  8
1
  6
SOLID
 62
     0
100
AcDbCircle
 10
0.990944
 20
0.469591
 30
0.0
 40
0.048794
210
0.0
220
0.0
230
1.0
100
AcDbArc
 50
245.880352
 51
266.490431
  0
ARC
  5
3DE
100
AcDbEntity
  8
1
  6
SOLID
 62
     0
100
AcDbCircle
 10
0.974301
 20
0.416953
 30
0.0
 40
0.008749
210
0.0
220
0.0
230
1.0
100
AcDbArc
 50
112.129494
 51
195.351477
  0
ARC
  5
3DF
100
AcDbEntity
  8
1
  6
SOLID
 62
     0
100
AcDbCircle
 10
2.678999
 20
0.231199
 30
0.0
 40
0.101655
210
0.0
220
0.0
230
1.0
100
AcDbArc
 50
93.594642
 51
122.480643
  0
LINE
  5
3E0
100
AcDbEntity
  8
1
  6
SOLID
 62
     0
100
AcDbLine
 10
2.624409
 20
0.316952
 30
0.0
 11
2.553959
 21
0.279018
 31
0.0
  0
LINE
  5
3E1
100
AcDbEntity
  8
1
  6
SOLID
 62
     0
100
AcDbLine
 10
2.553959
 20
0.279018
 30
0.0
 11
2.527419
 21
0.25623
 31
0.0
  0
LINE
  5
3E2
100
AcDbEntity
  8
1
  6
SOLID
 62
     0
100
AcDbLine
 10
2.527419
 20
0.25623
 30
0.0
 11
2.508522
 21
0.237332
 31
0.0
  0
LINE
  5
3E3
100
AcDbEntity
  8
1
  6
SOLID
 62
     0
100
AcDbLine
 10
2.508522
 20
0.237332
 30
0.0
 11
2.503519
 21
0.23094
 31
0.0
  0
ARC
  5
3E4
100
AcDbEntity
  8
1
  6
SOLID
 62
     0
100
AcDbCircle
 10
2.737974
 20
0.067665
 30
0.0
 40
0.285706
210
0.0
220
0.0
230
1.0
100
AcDbArc
 50
145.146533
 51
161.187735
  0
ARC
  5
3E5
100
AcDbEntity
  8
1
  6
SOLID
 62
     0
100
AcDbCircle
 10
2.655321
 20
0.126808
 30
0.0
 40
0.190666
210
0.0
220
0.0
230
1.0
100
AcDbArc
 50
170.036863
 51
181.820698
  0
ARC
  5
3E6
100
AcDbEntity
  8
1
  6
SOLID
 62
     0
100
AcDbCircle
 10
2.50162
 20
0.106541
 30
0.0
 40
0.039512
210
0.0
220
0.0
230
1.0
100
AcDbArc
 50
158.92226
 51
202.700368
  0
ARC
  5
3E7
100
AcDbEntity
  8
1
  6
SOLID
 62
     0
100
AcDbCircle
 10
2.543812
 20
0.08302
 30
0.0
 40
0.079077
210
0.0
220
0.0
230
1.0
100
AcDbArc
 50
173.995572
 51
194.497816
  0
ARC
  5
3E8
100
AcDbEntity
  8
1
  6
SOLID
 62
     0
100
AcDbCircle
 10
2.623071
 20
0.111666
 30
0.0
 40
0.163175
210
0.0
220
0.0
230
1.0
100
AcDbArc
 50
197.270111
 51
232.099387
  0
ARC
  5
3E9
100
AcDbEntity
  8
1
  6
SOLID
 62
     0
100
AcDbCircle
 10
2.491268
 20
-0.089673
 30
0.0
 40
0.079149
210
0.0
220
0.0
230
1.0
100
AcDbArc
 50
40.027849
 51
66.49588
  0
ARC
  5
3EA
100
AcDbEntity
  8
1
  6
SOLID
 62
     0
100
AcDbCircle
 10
2.708022
 20
0.204792
 30
0.0
 40
0.289315
210
0.0
220
0.0
230
1.0
100
AcDbArc
 50
237.335987
 51
262.195564
  0
LINE
  5
3EB
100
AcDbEntity
  8
1
  6
SOLID
 62
     0
100
AcDbLine
 10
2.668735
 20
-0.081843
 30
0.0
 11
2.761833
 21
-0.080454
 31
0.0
  0
LINE
  5
3EC
100
AcDbEntity
  8
1
  6
SOLID
 62
     0
100
AcDbLine
 10
2.761833
 20
-0.080454
 30
0.0
 11
2.78615
 21
-0.073228
 31
0.0
  0
LINE
  5
3ED
100
AcDbEntity
  8
1
  6
SOLID
 62
     0
100
AcDbLine
 10
2.78615
 20
-0.073228
 30
0.0
 11
2.802268
 21
-0.073089
 31
0.0
  0
LINE
  5
3EE
100
AcDbEntity
  8
1
  6
SOLID
 62
     0
100
AcDbLine
 10
2.802268
 20
-0.073089
 30
0.0
 11
2.810466
 21
-0.0717
 31
0.0
  0
ARC
  5
3EF
100
AcDbEntity
  8
1
  6
SOLID
 62
     0
100
AcDbCircle
 10
3.009376
 20
-0.487739
 30
0.0
 40
0.461144
210
0.0
220
0.0
230
1.0
100
AcDbArc
 50
107.093709
 51
115.552553
  0
ARC
  5
3F0
100
AcDbEntity
  8
1
  6
SOLID
 62
     0
100
AcDbCircle
 10
2.706301
 20
0.254047
 30
0.0
 40
0.344491
210
0.0
220
0.0
230
1.0
100
AcDbArc
 50
299.098109
 51
326.80623
  0
ARC
  5
3F1
100
AcDbEntity
  8
1
  6
SOLID
 62
     0
100
AcDbCircle
 10
2.84862
 20
0.14415
 30
0.0
 40
0.165826
210
0.0
220
0.0
230
1.0
100
AcDbArc
 50
331.665845
 51
369.384646
  0
ARC
  5
3F2
100
AcDbEntity
  8
1
  6
SOLID
 62
     0
100
AcDbCircle
 10
2.970119
 20
0.179287
 30
0.0
 40
0.042879
210
0.0
220
0.0
230
1.0
100
AcDbArc
 50
349.116049
 51
394.262933
  0
ARC
  5
3F3
100
AcDbEntity
  8
1
  6
SOLID
 62
     0
100
AcDbCircle
 10
2.8138
 20
0.129093
 30
0.0
 40
0.205661
210
0.0
220
0.0
230
1.0
100
AcDbArc
 50
21.188737
 51
76.798536
  0
ARC
  5
3F4
100
AcDbEntity
  8
1
  6
SOLID
 62
     0
100
AcDbCircle
 10
2.79949
 20
0.188007
 30
0.0
 40
0.154026
210
0.0
220
0.0
230
1.0
100
AcDbArc
 50
66.556888
 51
94.553871
  0
ARC
  5
3F5
100
AcDbEntity
  8
1
  6
SOLID
 62
     0
100
AcDbCircle
 10
2.749461
 20
0.085506
 30
0.0
 40
0.258816
210
0.0
220
0.0
230
1.0
100
AcDbArc
 50
81.601841
 51
107.269839
  0
ARC
  5
3F6
100
AcDbEntity
  8
1
  6
SOLID
 62
     0
100
AcDbCircle
 10
2.758977
 20
-0.166462
 30
0.0
 40
0.474604
210
0.0
220
0.0
230
1.0
100
AcDbArc
 50
81.827206
 51
95.113847
  0
ARC
  5
3F7
100
AcDbEntity
  8
1
  6
SOLID
 62
     0
100
AcDbCircle
 10
2.928549
 20
0.491389
 30
0.0
 40
0.213985
210
0.0
220
0.0
230
1.0
100
AcDbArc
 50
241.500654
 51
254.837319
  0
ARC
  5
3F8
100
AcDbEntity
  8
1
  6
SOLID
 62
     0
100
AcDbCircle
 10
2.768674
 20
0.074632
 30
0.0
 40
0.234499
210
0.0
220
0.0
230
1.0
100
AcDbArc
 50
46.635818
 51
63.69857
  0
ARC
  5
3F9
100
AcDbEntity
  8
1
  6
SOLID
 62
     0
100
AcDbCircle
 10
2.833366
 20
0.164003
 30
0.0
 40
0.125924
210
0.0
220
0.0
230
1.0
100
AcDbArc
 50
0.486176
 51
40.099699
  0
LINE
  5
3FA
100
AcDbEntity
  8
1
  6
SOLID
 62
     0
100
AcDbLine
 10
2.959286
 20
0.165076
 30
0.0
 11
2.95734
 21
0.106438
 31
0.0
  0
LINE
  5
3FB
100
AcDbEntity
  8
1
  6
SOLID
 62
     0
100
AcDbLine
 10
2.95734
 20
0.106438
 30
0.0
 11
2.948447
 21
0.084345
 31
0.0
  0
ARC
  5
3FC
100
AcDbEntity
  8
1
  6
SOLID
 62
     0
100
AcDbCircle
 10
2.782633
 20
0.16098
 30
0.0
 40
0.182667
210
0.0
220
0.0
230
1.0
100
AcDbArc
 50
289.060808
 51
335.19473
  0
LINE
  5
3FD
100
AcDbEntity
  8
1
  6
SOLID
 62
     0
100
AcDbLine
 10
2.842287
 20
-0.011672
 30
0.0
 11
2.799628
 21
-0.035572
 31
0.0
  0
LINE
  5
3FE
100
AcDbEntity
  8
1
  6
SOLID
 62
     0
100
AcDbLine
 10
2.799628
 20
-0.035572
 30
0.0
 11
2.79004
 21
-0.037656
 31
0.0
  0
ARC
  5
3FF
100
AcDbEntity
  8
1
  6
SOLID
 62
     0
100
AcDbCircle
 10
2.786906
 20
-0.100201
 30
0.0
 40
0.062623
210
0.0
220
0.0
230
1.0
100
AcDbArc
 50
87.130681
 51
121.047553
  0
LINE
  5
400
100
AcDbEntity
  8
1
  6
SOLID
 62
     0
100
AcDbLine
 10
2.754608
 20
-0.046549
 30
0.0
 11
2.642055
 21
-0.045021
 31
0.0
  0
LINE
  5
401
100
AcDbEntity
  8
1
  6
SOLID
 62
     0
100
AcDbLine
 10
2.642055
 20
-0.045021
 30
0.0
 11
2.629411
 21
-0.042242
 31
0.0
  0
ARC
  5
402
100
AcDbEntity
  8
1
  6
SOLID
 62
     0
100
AcDbCircle
 10
2.557198
 20
-0.165066
 30
0.0
 40
0.14248
210
0.0
220
0.0
230
1.0
100
AcDbArc
 50
59.547338
 51
76.711367
  0
ARC
  5
403
100
AcDbEntity
  8
1
  6
SOLID
 62
     0
100
AcDbCircle
 10
2.73808
 20
0.211741
 30
0.0
 40
0.280455
210
0.0
220
0.0
230
1.0
100
AcDbArc
 50
218.477688
 51
238.117033
  0
ARC
  5
404
100
AcDbEntity
  8
1
  6
SOLID
 62
     0
100
AcDbCircle
 10
2.586723
 20
0.076398
 30
0.0
 40
0.07864
210
0.0
220
0.0
230
1.0
100
AcDbArc
 50
178.665144
 51
209.864474
  0
ARC
  5
405
100
AcDbEntity
  8
1
  6
SOLID
 62
     0
100
AcDbCircle
 10
2.558353
 20
0.108375
 30
0.0
 40
0.058597
210
0.0
220
0.0
230
1.0
100
AcDbArc
 50
147.744321
 51
210.959176
  0
ARC
  5
406
100
AcDbEntity
  8
1
  6
SOLID
 62
     0
100
AcDbCircle
 10
2.565865
 20
0.144023
 30
0.0
 40
0.057233
210
0.0
220
0.0
230
1.0
100
AcDbArc
 50
146.30241
 51
184.38373
  0
ARC
  5
407
100
AcDbEntity
  8
1
  6
SOLID
 62
     0
100
AcDbCircle
 10
2.720977
 20
0.065723
 30
0.0
 40
0.230674
210
0.0
220
0.0
230
1.0
100
AcDbArc
 50
132.80194
 51
151.50421
  0
LINE
  5
408
100
AcDbEntity
  8
1
  6
SOLID
 62
     0
100
AcDbLine
 10
2.564241
 20
0.23497
 30
0.0
 11
2.644417
 21
0.286105
 31
0.0
  0
LINE
  5
409
100
AcDbEntity
  8
1
  6
SOLID
 62
     0
100
AcDbLine
 10
2.644417
 20
0.286105
 30
0.0
 11
2.662481
 21
0.290829
 31
0.0
  0
LINE
  5
40A
100
AcDbEntity
  8
1
  6
SOLID
 62
     0
100
AcDbLine
 10
2.662481
 20
0.290829
 30
0.0
 11
2.671236
 21
0.295137
 31
0.0
  0
LINE
  5
40B
100
AcDbEntity
  8
1
  6
SOLID
 62
     0
100
AcDbLine
 10
2.671236
 20
0.295137
 30
0.0
 11
2.678878
 21
0.297221
 31
0.0
  0
LINE
  5
40C
100
AcDbEntity
  8
1
  6
SOLID
 62
     0
100
AcDbLine
 10
2.678878
 20
0.297221
 30
0.0
 11
2.680962
 21
0.29736
 31
0.0
  0
ARC
  5
40D
100
AcDbEntity
  8
1
  6
SOLID
 62
     0
100
AcDbCircle
 10
2.684824
 20
0.337391
 30
0.0
 40
0.040216
210
0.0
220
0.0
230
1.0
100
AcDbArc
 50
264.489295
 51
306.0218
  0
LINE
  5
40E
100
AcDbEntity
  8
1
  6
SOLID
 62
     0
100
AcDbLine
 10
2.708475
 20
0.304863
 30
0.0
 11
2.716673
 21
0.306253
 31
0.0
  0
ARC
  5
40F
100
AcDbEntity
  8
1
  6
SOLID
 62
     0
100
AcDbCircle
 10
-0.834623
 20
0.125002
 30
0.0
 40
0.135088
210
0.0
220
0.0
230
1.0
100
AcDbArc
 50
117.871867
 51
154.639168
  0
ARC
  5
410
100
AcDbEntity
  8
1
  6
SOLID
 62
     0
100
AcDbCircle
 10
-0.902482
 20
0.16303
 30
0.0
 40
0.057724
210
0.0
220
0.0
230
1.0
100
AcDbArc
 50
159.905793
 51
234.517175
  0
ARC
  5
411
100
AcDbEntity
  8
1
  6
SOLID
 62
     0
100
AcDbCircle
 10
-0.755183
 20
0.440369
 30
0.0
 40
0.371334
210
0.0
220
0.0
230
1.0
100
AcDbArc
 50
240.862523
 51
251.630163
  0
ARC
  5
412
100
AcDbEntity
  8
1
  6
SOLID
 62
     0
100
AcDbCircle
 10
-0.864385
 20
0.002481
 30
0.0
 40
0.085834
210
0.0
220
0.0
230
1.0
100
AcDbArc
 50
60.976531
 51
95.229776
  0
ARC
  5
413
100
AcDbEntity
  8
1
  6
SOLID
 62
     0
100
AcDbCircle
 10
-0.813013
 20
-0.034789
 30
0.0
 40
0.112746
210
0.0
220
0.0
230
1.0
100
AcDbArc
 50
65.847999
 51
94.949916
  0
ARC
  5
414
100
AcDbEntity
  8
1
  6
SOLID
 62
     0
100
AcDbCircle
 10
-0.762277
 20
0.02224
 30
0.0
 40
0.046078
210
0.0
220
0.0
230
1.0
100
AcDbArc
 50
56.948352
 51
95.735941
  0
LINE
  5
415
100
AcDbEntity
  8
1
  6
SOLID
 62
     0
100
AcDbLine
 10
-0.737147
 20
0.060861
 30
0.0
 11
-0.695044
 21
0.0346
 31
0.0
  0
ARC
  5
416
100
AcDbEntity
  8
1
  6
SOLID
 62
     0
100
AcDbCircle
 10
-0.721155
 20
0.142393
 30
0.0
 40
0.125531
210
0.0
220
0.0
230
1.0
100
AcDbArc
 50
307.496564
 51
332.170114
  0
ARC
  5
417
100
AcDbEntity
  8
1
  6
SOLID
 62
     0
100
AcDbCircle
 10
-0.584928
 20
0.059444
 30
0.0
 40
0.03505
210
0.0
220
0.0
230
1.0
100
AcDbArc
 50
67.006635
 51
136.006415
  0
ARC
  5
418
100
AcDbEntity
  8
1
  6
SOLID
 62
     0
100
AcDbCircle
 10
-0.597427
 20
0.06246
 30
0.0
 40
0.039262
210
0.0
220
0.0
230
1.0
100
AcDbArc
 50
-8.446611
 51
48.157103
  0
ARC
  5
419
100
AcDbEntity
  8
1
  6
SOLID
 62
     0
100
AcDbCircle
 10
-0.532998
 20
0.058082
 30
0.0
 40
0.025632
210
0.0
220
0.0
230
1.0
100
AcDbArc
 50
183.105883
 51
299.848228
  0
ARC
  5
41A
100
AcDbEntity
  8
1
  6
SOLID
 62
     0
100
AcDbCircle
 10
-0.498217
 20
0.023143
 30
0.0
 40
0.025427
210
0.0
220
0.0
230
1.0
100
AcDbArc
 50
77.212987
 51
150.015625
  0
ARC
  5
41B
100
AcDbEntity
  8
1
  6
SOLID
 62
     0
100
AcDbCircle
 10
-0.556554
 20
-0.040053
 30
0.0
 40
0.108785
210
0.0
220
0.0
230
1.0
100
AcDbArc
 50
11.064667
 51
53.985177
  0
ARC
  5
41C
100
AcDbEntity
  8
1
  6
SOLID
 62
     0
100
AcDbCircle
 10
-0.761107
 20
-0.085187
 30
0.0
 40
0.318237
210
0.0
220
0.0
230
1.0
100
AcDbArc
 50
4.082993
 51
11.97179
  0
ARC
  5
41D
100
AcDbEntity
  8
1
  6
SOLID
 62
     0
100
AcDbCircle
 10
-0.477528
 20
-0.078616
 30
0.0
 40
0.037479
210
0.0
220
0.0
230
1.0
100
AcDbArc
 50
-30.82928
 51
25.41908
  0
LINE
  5
41E
100
AcDbEntity
  8
1
  6
SOLID
 62
     0
100
AcDbLine
 10
-0.445345
 20
-0.097823
 30
0.0
 11
-0.446734
 21
-0.170912
 31
0.0
  0
LINE
  5
41F
100
AcDbEntity
  8
1
  6
SOLID
 62
     0
100
AcDbLine
 10
-0.446734
 20
-0.170912
 30
0.0
 11
-0.453404
 21
-0.189532
 31
0.0
  0
ARC
  5
420
100
AcDbEntity
  8
1
  6
SOLID
 62
     0
100
AcDbCircle
 10
-0.52585
 20
-0.19794
 30
0.0
 40
0.072932
210
0.0
220
0.0
230
1.0
100
AcDbArc
 50
-29.378847
 51
6.62001
  0
ARC
  5
421
100
AcDbEntity
  8
1
  6
SOLID
 62
     0
100
AcDbCircle
 10
-0.62839
 20
-0.237719
 30
0.0
 40
0.166141
210
0.0
220
0.0
230
1.0
100
AcDbArc
 50
-10.320761
 51
1.379559
  0
ARC
  5
422
100
AcDbEntity
  8
1
  6
SOLID
 62
     0
100
AcDbCircle
 10
-0.446988
 20
-0.250628
 30
0.0
 40
0.024623
210
0.0
220
0.0
230
1.0
100
AcDbArc
 50
223.203083
 51
278.380557
  0
ARC
  5
423
100
AcDbEntity
  8
1
  6
SOLID
 62
     0
100
AcDbCircle
 10
-0.334228
 20
-0.206801
 30
0.0
 40
0.05847
210
0.0
220
0.0
230
1.0
100
AcDbArc
 50
147.953007
 51
184.186843
  0
ARC
  5
424
100
AcDbEntity
  8
1
  6
SOLID
 62
     0
100
AcDbCircle
 10
-0.327698
 20
-0.17147
 30
0.0
 40
0.056256
210
0.0
220
0.0
230
1.0
100
AcDbArc
 50
148.088586
 51
184.38985
  0
ARC
  5
425
100
AcDbEntity
  8
1
  6
SOLID
 62
     0
100
AcDbCircle
 10
-0.303123
 20
-0.132991
 30
0.0
 40
0.072855
210
0.0
220
0.0
230
1.0
100
AcDbArc
 50
149.881757
 51
186.890819
  0
ARC
  5
426
100
AcDbEntity
  8
1
  6
SOLID
 62
     0
100
AcDbCircle
 10
-0.280608
 20
-0.097749
 30
0.0
 40
0.085543
210
0.0
220
0.0
230
1.0
100
AcDbArc
 50
153.626981
 51
179.118624
  0
ARC
  5
427
100
AcDbEntity
  8
1
  6
SOLID
 62
     0
100
AcDbCircle
 10
-0.287831
 20
-0.051654
 30
0.0
 40
0.069887
210
0.0
220
0.0
230
1.0
100
AcDbArc
 50
150.22817
 51
186.651776
  0
ARC
  5
428
100
AcDbEntity
  8
1
  6
SOLID
 62
     0
100
AcDbCircle
 10
-0.296488
 20
-0.012256
 30
0.0
 40
0.052219
210
0.0
220
0.0
230
1.0
100
AcDbArc
 50
149.946671
 51
185.159967
  0
ARC
  5
429
100
AcDbEntity
  8
1
  6
SOLID
 62
     0
100
AcDbCircle
 10
-0.854677
 20
0.065555
 30
0.0
 40
0.515585
210
0.0
220
0.0
230
1.0
100
AcDbArc
 50
354.249564
 51
364.91992
  0
LINE
  5
42A
100
AcDbEntity
  8
1
  6
SOLID
 62
     0
100
AcDbLine
 10
-0.340991
 20
0.109773
 30
0.0
 11
-0.347661
 21
0.127281
 31
0.0
  0
ARC
  5
42B
100
AcDbEntity
  8
1
  6
SOLID
 62
     0
100
AcDbCircle
 10
-0.499371
 20
0.027548
 30
0.0
 40
0.181556
210
0.0
220
0.0
230
1.0
100
AcDbArc
 50
33.320743
 51
53.90208
  0
ARC
  5
42C
100
AcDbEntity
  8
1
  6
SOLID
 62
     0
100
AcDbCircle
 10
-0.432449
 20
0.100957
 30
0.0
 40
0.083517
210
0.0
220
0.0
230
1.0
100
AcDbArc
 50
61.348138
 51
95.32782
  0
ARC
  5
42D
100
AcDbEntity
  8
1
  6
SOLID
 62
     0
100
AcDbCircle
 10
-0.473716
 20
0.121641
 30
0.0
 40
0.070893
210
0.0
220
0.0
230
1.0
100
AcDbArc
 50
61.789293
 51
99.228766
  0
LINE
  5
42E
100
AcDbEntity
  8
1
  6
SOLID
 62
     0
100
AcDbLine
 10
-0.485085
 20
0.191616
 30
0.0
 11
-0.556924
 21
0.189949
 31
0.0
  0
LINE
  5
42F
100
AcDbEntity
  8
1
  6
SOLID
 62
     0
100
AcDbLine
 10
-0.556924
 20
0.189949
 30
0.0
 11
-0.569708
 21
0.18717
 31
0.0
  0
LINE
  5
430
100
AcDbEntity
  8
1
  6
SOLID
 62
     0
100
AcDbLine
 10
-0.569708
 20
0.18717
 30
0.0
 11
-0.579435
 21
0.182724
 31
0.0
  0
LINE
  5
431
100
AcDbEntity
  8
1
  6
SOLID
 62
     0
100
AcDbLine
 10
-0.579435
 20
0.182724
 30
0.0
 11
-0.691987
 21
0.184252
 31
0.0
  0
LINE
  5
432
100
AcDbEntity
  8
1
  6
SOLID
 62
     0
100
AcDbLine
 10
-0.691987
 20
0.184252
 30
0.0
 11
-0.70477
 21
0.18717
 31
0.0
  0
LINE
  5
433
100
AcDbEntity
  8
1
  6
SOLID
 62
     0
100
AcDbLine
 10
-0.70477
 20
0.18717
 30
0.0
 11
-0.716998
 21
0.191616
 31
0.0
  0
ARC
  5
434
100
AcDbEntity
  8
1
  6
SOLID
 62
     0
100
AcDbCircle
 10
-0.886275
 20
0.231483
 30
0.0
 40
0.01731
210
0.0
220
0.0
230
1.0
100
AcDbArc
 50
65.212481
 51
131.641296
  0
ARC
  5
435
100
AcDbEntity
  8
1
  6
SOLID
 62
     0
100
AcDbCircle
 10
0.461768
 20
0.497924
 30
0.0
 40
0.313293
210
0.0
220
0.0
230
1.0
100
AcDbArc
 50
289.34325
 51
305.985699
  0
ARC
  5
436
100
AcDbEntity
  8
1
  6
SOLID
 62
     0
100
AcDbCircle
 10
0.561298
 20
0.14458
 30
0.0
 40
0.057892
210
0.0
220
0.0
230
1.0
100
AcDbArc
 50
85.79889
 51
121.951173
  0
ARC
  5
437
100
AcDbEntity
  8
1
  6
SOLID
 62
     0
100
AcDbCircle
 10
0.492591
 20
0.376656
 30
0.0
 40
0.186874
210
0.0
220
0.0
230
1.0
100
AcDbArc
 50
264.066824
 51
281.754811
  0
ARC
  5
438
100
AcDbEntity
  8
1
  6
SOLID
 62
     0
100
AcDbCircle
 10
0.484466
 20
0.092011
 30
0.0
 40
0.099404
210
0.0
220
0.0
230
1.0
100
AcDbArc
 50
96.464251
 51
114.137621
  0
LINE
  5
439
100
AcDbEntity
  8
1
  6
SOLID
 62
     0
100
AcDbLine
 10
0.443816
 20
0.182724
 30
0.0
 11
0.33057
 21
0.184252
 31
0.0
  0
LINE
  5
43A
100
AcDbEntity
  8
1
  6
SOLID
 62
     0
100
AcDbLine
 10
0.33057
 20
0.184252
 30
0.0
 11
0.289718
 21
0.1912
 31
0.0
  0
ARC
  5
43B
100
AcDbEntity
  8
1
  6
SOLID
 62
     0
100
AcDbCircle
 10
0.252926
 20
-0.247201
 30
0.0
 40
0.439942
210
0.0
220
0.0
230
1.0
100
AcDbArc
 50
85.20286
 51
97.773205
  0
ARC
  5
43C
100
AcDbEntity
  8
1
  6
SOLID
 62
     0
100
AcDbCircle
 10
0.162501
 20
0.253061
 30
0.0
 40
0.071405
210
0.0
220
0.0
230
1.0
100
AcDbArc
 50
264.140043
 51
295.661213
  0
ARC
  5
43D
100
AcDbEntity
  8
1
  6
SOLID
 62
     0
100
AcDbCircle
 10
0.248039
 20
-0.060317
 30
0.0
 40
0.259516
210
0.0
220
0.0
230
1.0
100
AcDbArc
 50
110.958827
 51
149.671585
  0
ARC
  5
43E
100
AcDbEntity
  8
1
  6
SOLID
 62
     0
100
AcDbCircle
 10
-0.708242
 20
0.280168
 30
0.0
 40
0.761643
210
0.0
220
0.0
230
1.0
100
AcDbArc
 50
338.417149
 51
344.038896
  0
ARC
  5
43F
100
AcDbEntity
  8
1
  6
SOLID
 62
     0
100
AcDbCircle
 10
-0.420906
 20
0.076476
 30
0.0
 40
0.427798
210
0.0
220
0.0
230
1.0
100
AcDbArc
 50
338.839309
 51
349.702079
  0
ARC
  5
440
100
AcDbEntity
  8
1
  6
SOLID
 62
     0
100
AcDbCircle
 10
-0.070247
 20
-0.082117
 30
0.0
 40
0.048472
210
0.0
220
0.0
230
1.0
100
AcDbArc
 50
-34.191071
 51
4.928633
  0
ARC
  5
441
100
AcDbEntity
  8
1
  6
SOLID
 62
     0
100
AcDbCircle
 10
-0.093925
 20
-0.113321
 30
0.0
 40
0.063896
210
0.0
220
0.0
230
1.0
100
AcDbArc
 50
-31.529591
 51
3.557599
  0
ARC
  5
442
100
AcDbEntity
  8
1
  6
SOLID
 62
     0
100
AcDbCircle
 10
-0.105207
 20
-0.150379
 30
0.0
 40
0.065845
210
0.0
220
0.0
230
1.0
100
AcDbArc
 50
-30.537519
 51
3.172866
  0
ARC
  5
443
100
AcDbEntity
  8
1
  6
SOLID
 62
     0
100
AcDbCircle
 10
-0.101488
 20
-0.188054
 30
0.0
 40
0.053161
210
0.0
220
0.0
230
1.0
100
AcDbArc
 50
-33.406007
 51
4.551393
  0
ARC
  5
444
100
AcDbEntity
  8
1
  6
SOLID
 62
     0
100
AcDbCircle
 10
-0.097999
 20
-0.223055
 30
0.0
 40
0.041289
210
0.0
220
0.0
230
1.0
100
AcDbArc
 50
-34.369638
 51
7.980451
  0
ARC
  5
445
100
AcDbEntity
  8
1
  6
SOLID
 62
     0
100
AcDbCircle
 10
-0.049054
 20
-0.257256
 30
0.0
 40
0.018428
210
0.0
220
0.0
230
1.0
100
AcDbArc
 50
143.767914
 51
240.663525
  0
ARC
  5
446
100
AcDbEntity
  8
1
  6
SOLID
 62
     0
100
AcDbCircle
 10
-0.033737
 20
-0.162782
 30
0.0
 40
0.113188
210
0.0
220
0.0
230
1.0
100
AcDbArc
 50
257.579466
 51
279.453867
  0
LINE
  5
447
100
AcDbEntity
  8
1
  6
SOLID
 62
     0
100
AcDbLine
 10
-0.015146
 20
-0.274432
 30
0.0
 11
-0.005836
 21
-0.26943
 31
0.0
  0
LINE
  5
448
100
AcDbEntity
  8
1
  6
SOLID
 62
     0
100
AcDbLine
 10
-0.005836
 20
-0.26943
 30
0.0
 11
0.01334
 21
-0.209263
 31
0.0
  0
LINE
  5
449
100
AcDbEntity
  8
1
  6
SOLID
 62
     0
100
AcDbLine
 10
0.01334
 20
-0.209263
 30
0.0
 11
0.01334
 21
-0.200509
 31
0.0
  0
LINE
  5
44A
100
AcDbEntity
  8
1
  6
SOLID
 62
     0
100
AcDbLine
 10
0.01334
 20
-0.200509
 30
0.0
 11
0.014729
 21
-0.192867
 31
0.0
  0
LINE
  5
44B
100
AcDbEntity
  8
1
  6
SOLID
 62
     0
100
AcDbLine
 10
0.014729
 20
-0.192867
 30
0.0
 11
0.015563
 21
-0.190782
 31
0.0
  0
ARC
  5
44C
100
AcDbEntity
  8
1
  6
SOLID
 62
     0
100
AcDbCircle
 10
-0.096969
 20
-0.128447
 30
0.0
 40
0.128643
210
0.0
220
0.0
230
1.0
100
AcDbArc
 50
331.016321
 51
354.072564
  0
LINE
  5
44D
100
AcDbEntity
  8
1
  6
SOLID
 62
     0
100
AcDbLine
 10
0.030987
 20
-0.141732
 30
0.0
 11
0.09685
 21
-0.019592
 31
0.0
  0
LINE
  5
44E
100
AcDbEntity
  8
1
  6
SOLID
 62
     0
100
AcDbLine
 10
0.09685
 20
-0.019592
 30
0.0
 11
0.108384
 21
-0.004724
 31
0.0
  0
LINE
  5
44F
100
AcDbEntity
  8
1
  6
SOLID
 62
     0
100
AcDbLine
 10
0.108384
 20
-0.004724
 30
0.0
 11
0.116304
 21
0.009032
 31
0.0
  0
ARC
  5
450
100
AcDbEntity
  8
1
  6
SOLID
 62
     0
100
AcDbCircle
 10
0.235583
 20
-0.092962
 30
0.0
 40
0.156941
210
0.0
220
0.0
230
1.0
100
AcDbArc
 50
116.12953
 51
139.466548
  0
ARC
  5
451
100
AcDbEntity
  8
1
  6
SOLID
 62
     0
100
AcDbCircle
 10
0.168884
 20
0.001169
 30
0.0
 40
0.046833
210
0.0
220
0.0
230
1.0
100
AcDbArc
 50
42.473678
 51
92.960043
  0
ARC
  5
452
100
AcDbEntity
  8
1
  6
SOLID
 62
     0
100
AcDbCircle
 10
0.202647
 20
0.076866
 30
0.0
 40
0.04408
210
0.0
220
0.0
230
1.0
100
AcDbArc
 50
271.014584
 51
336.365021
  0
ARC
  5
453
100
AcDbEntity
  8
1
  6
SOLID
 62
     0
100
AcDbCircle
 10
0.283829
 20
0.055396
 30
0.0
 40
0.040976
210
0.0
220
0.0
230
1.0
100
AcDbArc
 50
117.600192
 51
174.68146
  0
ARC
  5
454
100
AcDbEntity
  8
1
  6
SOLID
 62
     0
100
AcDbCircle
 10
0.281125
 20
0.045988
 30
0.0
 40
0.048533
210
0.0
220
0.0
230
1.0
100
AcDbArc
 50
68.529812
 51
109.599394
  0
ARC
  5
455
100
AcDbEntity
  8
1
  6
SOLID
 62
     0
100
AcDbCircle
 10
0.279719
 20
0.072353
 30
0.0
 40
0.02685
210
0.0
220
0.0
230
1.0
100
AcDbArc
 50
3.05543
 51
44.44371
  0
LINE
  5
456
100
AcDbEntity
  8
1
  6
SOLID
 62
     0
100
AcDbLine
 10
0.306531
 20
0.073784
 30
0.0
 11
0.320704
 21
0.042103
 31
0.0
  0
LINE
  5
457
100
AcDbEntity
  8
1
  6
SOLID
 62
     0
100
AcDbLine
 10
0.320704
 20
0.042103
 30
0.0
 11
0.332515
 21
0.0346
 31
0.0
  0
ARC
  5
458
100
AcDbEntity
  8
1
  6
SOLID
 62
     0
100
AcDbCircle
 10
0.34928
 20
0.094815
 30
0.0
 40
0.062506
210
0.0
220
0.0
230
1.0
100
AcDbArc
 50
254.442032
 51
301.546387
  0
ARC
  5
459
100
AcDbEntity
  8
1
  6
SOLID
 62
     0
100
AcDbCircle
 10
0.441189
 20
-0.034058
 30
0.0
 40
0.096029
210
0.0
220
0.0
230
1.0
100
AcDbArc
 50
96.15445
 51
128.064695
  0
ARC
  5
45A
100
AcDbEntity
  8
1
  6
SOLID
 62
     0
100
AcDbCircle
 10
0.453271
 20
0.029083
 30
0.0
 40
0.039322
210
0.0
220
0.0
230
1.0
100
AcDbArc
 50
82.700521
 51
124.685868
  0
ARC
  5
45B
100
AcDbEntity
  8
1
  6
SOLID
 62
     0
100
AcDbCircle
 10
0.452633
 20
0.107026
 30
0.0
 40
0.039344
210
0.0
220
0.0
230
1.0
100
AcDbArc
 50
278.234204
 51
304.543474
  0
ARC
  5
45C
100
AcDbEntity
  8
1
  6
SOLID
 62
     0
100
AcDbCircle
 10
0.507998
 20
-0.069841
 30
0.0
 40
0.148193
210
0.0
220
0.0
230
1.0
100
AcDbArc
 50
87.683452
 51
102.888802
  0
ARC
  5
45D
100
AcDbEntity
  8
1
  6
SOLID
 62
     0
100
AcDbCircle
 10
0.564891
 20
-0.048837
 30
0.0
 40
0.136884
210
0.0
220
0.0
230
1.0
100
AcDbArc
 50
87.925063
 51
111.831036
  0
ARC
  5
45E
100
AcDbEntity
  8
1
  6
SOLID
 62
     0
100
AcDbCircle
 10
0.504487
 20
0.38686
 30
0.0
 40
0.305965
210
0.0
220
0.0
230
1.0
100
AcDbArc
 50
282.334639
 51
299.413237
  0
ARC
  5
45F
100
AcDbEntity
  8
1
  6
SOLID
 62
     0
100
AcDbCircle
 10
0.533789
 20
0.291907
 30
0.0
 40
0.209925
210
0.0
220
0.0
230
1.0
100
AcDbArc
 50
305.183589
 51
321.145861
  0
ARC
  5
460
100
AcDbEntity
  8
1
  6
SOLID
 62
     0
100
AcDbCircle
 10
0.643907
 20
0.189588
 30
0.0
 40
0.060912
210
0.0
220
0.0
230
1.0
100
AcDbArc
 50
331.166886
 51
357.724365
  0
ARC
  5
461
100
AcDbEntity
  8
1
  6
SOLID
 62
     0
100
AcDbCircle
 10
0.626412
 20
0.179519
 30
0.0
 40
0.078731
210
0.0
220
0.0
230
1.0
100
AcDbArc
 50
5.576681
 51
53.261493
  0
ARC
  5
462
100
AcDbEntity
  8
1
  6
SOLID
 62
     0
100
AcDbCircle
 10
0.658497
 20
0.2254
 30
0.0
 40
0.022837
210
0.0
220
0.0
230
1.0
100
AcDbArc
 50
48.911155
 51
123.613105
  0
ARC
  5
463
100
AcDbEntity
  8
1
  6
SOLID
 62
     0
100
AcDbCircle
 10
2.736288
 20
0.069038
 30
0.0
 40
0.183775
210
0.0
220
0.0
230
1.0
100
AcDbArc
 50
107.384371
 51
117.963306
  0
ARC
  5
464
100
AcDbEntity
  8
1
  6
SOLID
 62
     0
100
AcDbCircle
 10
2.663332
 20
-0.806842
 30
0.0
 40
1.038283
210
0.0
220
0.0
230
1.0
100
AcDbArc
 50
82.286769
 51
90.729385
  0
ARC
  5
465
100
AcDbEntity
  8
1
  6
SOLID
 62
     0
100
AcDbCircle
 10
2.787653
 20
0.176311
 30
0.0
 40
0.048144
210
0.0
220
0.0
230
1.0
100
AcDbArc
 50
-66.134037
 51
71.806031
  0
ARC
  5
466
100
AcDbEntity
  8
1
  6
SOLID
 62
     0
100
AcDbCircle
 10
2.810473
 20
0.10804
 30
0.0
 40
0.024472
210
0.0
220
0.0
230
1.0
100
AcDbArc
 50
97.84666
 51
159.572617
  0
ARC
  5
467
100
AcDbEntity
  8
1
  6
SOLID
 62
     0
100
AcDbCircle
 10
2.878704
 20
0.156356
 30
0.0
 40
0.099463
210
0.0
220
0.0
230
1.0
100
AcDbArc
 50
203.571247
 51
257.651466
  0
ARC
  5
468
100
AcDbEntity
  8
1
  6
SOLID
 62
     0
100
AcDbCircle
 10
2.83673
 20
0.114104
 30
0.0
 40
0.058683
210
0.0
220
0.0
230
1.0
100
AcDbArc
 50
290.657416
 51
338.151147
  0
ARC
  5
469
100
AcDbEntity
  8
1
  6
SOLID
 62
     0
100
AcDbCircle
 10
2.872574
 20
0.120463
 30
0.0
 40
0.033793
210
0.0
220
0.0
230
1.0
100
AcDbArc
 50
303.444295
 51
357.892716
  0
LINE
  5
46A
100
AcDbEntity
  8
1
  6
SOLID
 62
     0
100
AcDbLine
 10
2.906344
 20
0.119222
 30
0.0
 11
2.903982
 21
0.165216
 31
0.0
  0
LINE
  5
46B
100
AcDbEntity
  8
1
  6
SOLID
 62
     0
100
AcDbLine
 10
2.903982
 20
0.165216
 30
0.0
 11
2.889253
 21
0.194534
 31
0.0
  0
LINE
  5
46C
100
AcDbEntity
  8
1
  6
SOLID
 62
     0
100
AcDbLine
 10
2.889253
 20
0.194534
 30
0.0
 11
2.87897
 21
0.208291
 31
0.0
  0
ARC
  5
46D
100
AcDbEntity
  8
1
  6
SOLID
 62
     0
100
AcDbCircle
 10
2.775232
 20
0.111633
 30
0.0
 40
0.14179
210
0.0
220
0.0
230
1.0
100
AcDbArc
 50
42.976486
 51
92.2706
  0
LINE
  5
46E
100
AcDbEntity
  8
1
  6
SOLID
 62
     0
100
AcDbLine
 10
2.769614
 20
0.253312
 30
0.0
 11
2.703056
 21
0.251089
 31
0.0
  0
LINE
  5
46F
100
AcDbEntity
  8
1
  6
SOLID
 62
     0
100
AcDbLine
 10
2.703056
 20
0.251089
 30
0.0
 11
2.685687
 21
0.244836
 31
0.0
  0
LINE
  5
470
100
AcDbEntity
  8
1
  6
SOLID
 62
     0
100
AcDbLine
 10
2.685687
 20
0.244836
 30
0.0
 11
2.681379
 21
0.244419
 31
0.0
  0
ARC
  5
471
100
AcDbEntity
  8
1
  6
SOLID
 62
     0
100
AcDbCircle
 10
2.704431
 20
0.101537
 30
0.0
 40
0.142992
210
0.0
220
0.0
230
1.0
100
AcDbArc
 50
125.452912
 51
173.232309
  0
ARC
  5
472
100
AcDbEntity
  8
1
  6
SOLID
 62
     0
100
AcDbCircle
 10
2.674798
 20
0.120772
 30
0.0
 40
0.112388
210
0.0
220
0.0
230
1.0
100
AcDbArc
 50
181.215464
 51
225.527065
  0
ARC
  5
473
100
AcDbEntity
  8
1
  6
SOLID
 62
     0
100
AcDbCircle
 10
2.739443
 20
0.240471
 30
0.0
 40
0.246002
210
0.0
220
0.0
230
1.0
100
AcDbArc
 50
234.349009
 51
250.572166
  0
ARC
  5
474
100
AcDbEntity
  8
1
  6
SOLID
 62
     0
100
AcDbCircle
 10
2.709599
 20
0.383953
 30
0.0
 40
0.379058
210
0.0
220
0.0
230
1.0
100
AcDbArc
 50
262.118099
 51
279.024849
  0
ARC
  5
475
100
AcDbEntity
  8
1
  6
SOLID
 62
     0
100
AcDbCircle
 10
2.766805
 20
0.01896
 30
0.0
 40
0.009639
210
0.0
220
0.0
230
1.0
100
AcDbArc
 50
283.525032
 51
363.768369
  0
ARC
  5
476
100
AcDbEntity
  8
1
  6
SOLID
 62
     0
100
AcDbCircle
 10
3.680776
 20
0.689188
 30
0.0
 40
1.125261
210
0.0
220
0.0
230
1.0
100
AcDbArc
 50
212.388793
 51
216.516751
  0
ARC
  5
477
100
AcDbEntity
  8
1
  6
SOLID
 62
     0
100
AcDbCircle
 10
2.663315
 20
0.037555
 30
0.0
 40
0.083136
210
0.0
220
0.0
230
1.0
100
AcDbArc
 50
36.006124
 51
59.351229
  0
LINE
  5
478
100
AcDbEntity
  8
1
  6
SOLID
 62
     0
100
AcDbLine
 10
2.705696
 20
0.109078
 30
0.0
 11
2.694024
 21
0.110607
 31
0.0
  0
ARC
  5
479
100
AcDbEntity
  8
1
  6
SOLID
 62
     0
100
AcDbCircle
 10
2.703445
 20
0.094727
 30
0.0
 40
0.018464
210
0.0
220
0.0
230
1.0
100
AcDbArc
 50
120.68096
 51
197.391477
  0
ARC
  5
47A
100
AcDbEntity
  8
1
  6
SOLID
 62
     0
100
AcDbCircle
 10
2.617601
 20
0.073159
 30
0.0
 40
0.070087
210
0.0
220
0.0
230
1.0
100
AcDbArc
 50
-20.968479
 51
13.237374
  0
LINE
  5
47B
100
AcDbEntity
  8
1
  6
SOLID
 62
     0
100
AcDbLine
 10
2.683046
 20
0.048078
 30
0.0
 11
2.673181
 21
0.041964
 31
0.0
  0
ARC
  5
47C
100
AcDbEntity
  8
1
  6
SOLID
 62
     0
100
AcDbCircle
 10
2.655681
 20
0.097144
 30
0.0
 40
0.057889
210
0.0
220
0.0
230
1.0
100
AcDbArc
 50
242.08233
 51
287.596016
  0
LINE
  5
47D
100
AcDbEntity
  8
1
  6
SOLID
 62
     0
100
AcDbLine
 10
2.628577
 20
0.045994
 30
0.0
 11
2.624409
 21
0.054331
 31
0.0
  0
ARC
  5
47E
100
AcDbEntity
  8
1
  6
SOLID
 62
     0
100
AcDbCircle
 10
2.722492
 20
0.066444
 30
0.0
 40
0.098829
210
0.0
220
0.0
230
1.0
100
AcDbArc
 50
155.24463
 51
187.040209
  0
ARC
  5
47F
100
AcDbEntity
  8
1
  6
SOLID
 62
     0
100
AcDbCircle
 10
2.73152
 20
0.124099
 30
0.0
 40
0.100106
210
0.0
220
0.0
230
1.0
100
AcDbArc
 50
154.610761
 51
189.354577
  0
ARC
  5
480
100
AcDbEntity
  8
1
  6
SOLID
 62
     0
100
AcDbCircle
 10
2.77406
 20
0.182799
 30
0.0
 40
0.133909
210
0.0
220
0.0
230
1.0
100
AcDbArc
 50
163.080892
 51
186.766387
  0
LINE
  5
481
100
AcDbEntity
  8
1
  6
SOLID
 62
     0
100
AcDbLine
 10
2.645946
 20
0.221769
 30
0.0
 11
2.64414
 21
0.225799
 31
0.0
  0
ARC
  5
482
100
AcDbEntity
  8
1
  6
SOLID
 62
     0
100
AcDbCircle
 10
2.644629
 20
0.196657
 30
0.0
 40
0.029146
210
0.0
220
0.0
230
1.0
100
AcDbArc
 50
90.96183
 51
132.062695
  0
LINE
  5
483
100
AcDbEntity
  8
1
  6
SOLID
 62
     0
100
AcDbLine
 10
2.625103
 20
0.218295
 30
0.0
 11
2.621491
 21
0.218018
 31
0.0
  0
ARC
  5
484
100
AcDbEntity
  8
1
  6
SOLID
 62
     0
100
AcDbCircle
 10
2.708878
 20
0.163366
 30
0.0
 40
0.014813
210
0.0
220
0.0
230
1.0
100
AcDbArc
 50
162.91859
 51
245.089051
  0
ARC
  5
485
100
AcDbEntity
  8
1
  6
SOLID
 62
     0
100
AcDbCircle
 10
2.726098
 20
0.237522
 30
0.0
 40
0.090679
210
0.0
220
0.0
230
1.0
100
AcDbArc
 50
255.006779
 51
295.424652
  0
ARC
  5
486
100
AcDbEntity
  8
1
  6
SOLID
 62
     0
100
AcDbCircle
 10
2.76027
 20
0.168456
 30
0.0
 40
0.013682
210
0.0
220
0.0
230
1.0
100
AcDbArc
 50
290.353664
 51
419.31411
  0
ARC
  5
487
100
AcDbEntity
  8
1
  6
SOLID
 62
     0
100
AcDbCircle
 10
2.738952
 20
0.051029
 30
0.0
 40
0.132257
210
0.0
220
0.0
230
1.0
100
AcDbArc
 50
77.644423
 51
100.860136
  0
ARC
  5
488
100
AcDbEntity
  8
1
  6
SOLID
 62
     0
100
AcDbCircle
 10
2.726577
 20
0.141834
 30
0.0
 40
0.041047
210
0.0
220
0.0
230
1.0
100
AcDbArc
 50
107.793492
 51
140.907817
  0
LINE
  5
489
100
AcDbEntity
  8
1
  6
SOLID
 62
     0
100
AcDbLine
 10
0.097129
 20
-0.521074
 30
0.0
 11
0.099352
 21
-0.512737
 31
0.0
  0
LINE
  5
48A
100
AcDbEntity
  8
1
  6
SOLID
 62
     0
100
AcDbLine
 10
0.099352
 20
-0.512737
 30
0.0
 11
0.096156
 21
-0.509402
 31
0.0
  0
LINE
  5
48B
100
AcDbEntity
  8
1
  6
SOLID
 62
     0
100
AcDbLine
 10
0.096156
 20
-0.509402
 30
0.0
 11
0.092682
 21
-0.511486
 31
0.0
  0
LINE
  5
48C
100
AcDbEntity
  8
1
  6
SOLID
 62
     0
100
AcDbLine
 10
0.092682
 20
-0.511486
 30
0.0
 11
0.097129
 21
-0.521074
 31
0.0
  0
ARC
  5
48D
100
AcDbEntity
  8
1
  6
SOLID
 62
     0
100
AcDbCircle
 10
-1.834628
 20
0.44597
 30
0.0
 40
0.084012
210
0.0
220
0.0
230
1.0
100
AcDbArc
 50
142.208025
 51
182.986287
  0
ARC
  5
48E
100
AcDbEntity
  8
1
  6
SOLID
 62
     0
100
AcDbCircle
 10
-1.868966
 20
0.410568
 30
0.0
 40
0.05847
210
0.0
220
0.0
230
1.0
100
AcDbArc
 50
147.953048
 51
184.18713
  0
LINE
  5
48F
100
AcDbEntity
  8
1
  6
SOLID
 62
     0
100
AcDbLine
 10
-1.826122
 20
0.405466
 30
0.0
 11
-1.823899
 21
0.403242
 31
0.0
  0
LINE
  5
490
100
AcDbEntity
  8
1
  6
SOLID
 62
     0
100
AcDbLine
 10
-1.420101
 20
0.315007
 30
0.0
 11
-1.822232
 21
0.315007
 31
0.0
  0
ARC
  5
491
100
AcDbEntity
  8
1
  6
SOLID
 62
     0
100
AcDbCircle
 10
-1.368267
 20
0.231395
 30
0.0
 40
0.065684
210
0.0
220
0.0
230
1.0
100
AcDbArc
 50
148.962837
 51
183.064643
  0
ARC
  5
492
100
AcDbEntity
  8
1
  6
SOLID
 62
     0
100
AcDbCircle
 10
-1.361583
 20
0.268211
 30
0.0
 40
0.063034
210
0.0
220
0.0
230
1.0
100
AcDbArc
 50
149.5678
 51
182.682043
  0
ARC
  5
493
100
AcDbEntity
  8
1
  6
SOLID
 62
     0
100
AcDbCircle
 10
-1.430958
 20
0.303944
 30
0.0
 40
0.0155
210
0.0
220
0.0
230
1.0
100
AcDbArc
 50
345.787315
 51
405.537366
  0
LINE
  5
494
100
AcDbEntity
  8
1
  6
SOLID
 62
     0
100
AcDbLine
 10
-1.266836
 20
0.274711
 30
0.0
 11
-1.268781
 21
0.276934
 31
0.0
  0
LINE
  5
495
100
AcDbEntity
  8
1
  6
SOLID
 62
     0
100
AcDbLine
 10
-1.305882
 20
0.091153
 30
0.0
 11
-1.313246
 21
0.077258
 31
0.0
  0
LINE
  5
496
100
AcDbEntity
  8
1
  6
SOLID
 62
     0
100
AcDbLine
 10
-1.293098
 20
0.10491
 30
0.0
 11
-1.305882
 21
0.091153
 31
0.0
  0
LINE
  5
497
100
AcDbEntity
  8
1
  6
SOLID
 62
     0
100
AcDbLine
 10
-1.277396
 20
0.127976
 30
0.0
 11
-1.293098
 21
0.10491
 31
0.0
  0
LINE
  5
498
100
AcDbEntity
  8
1
  6
SOLID
 62
     0
100
AcDbLine
 10
-1.208337
 20
0.012506
 30
0.0
 11
-1.164427
 21
0.086568
 31
0.0
  0
LINE
  5
499
100
AcDbEntity
  8
1
  6
SOLID
 62
     0
100
AcDbLine
 10
-0.295414
 20
-1.124548
 30
0.0
 11
-0.308337
 21
-1.130801
 31
0.0
  0
LINE
  5
49A
100
AcDbEntity
  8
1
  6
SOLID
 62
     0
100
AcDbLine
 10
-0.28138
 20
-1.113293
 30
0.0
 11
-0.295414
 21
-1.124548
 31
0.0
  0
ARC
  5
49B
100
AcDbEntity
  8
1
  6
SOLID
 62
     0
100
AcDbCircle
 10
-0.278239
 20
-0.840264
 30
0.0
 40
0.186298
210
0.0
220
0.0
230
1.0
100
AcDbArc
 50
182.346424
 51
210.968725
  0
ARC
  5
49C
100
AcDbEntity
  8
1
  6
SOLID
 62
     0
100
AcDbCircle
 10
-0.401683
 20
-0.936879
 30
0.0
 40
0.036305
210
0.0
220
0.0
230
1.0
100
AcDbArc
 50
178.811853
 51
313.478745
  0
ARC
  5
49D
100
AcDbEntity
  8
1
  6
SOLID
 62
     0
100
AcDbCircle
 10
-0.576513
 20
-0.697474
 30
0.0
 40
0.078718
210
0.0
220
0.0
230
1.0
100
AcDbArc
 50
354.579927
 51
387.831795
  0
ARC
  5
49E
100
AcDbEntity
  8
1
  6
SOLID
 62
     0
100
AcDbCircle
 10
-0.699911
 20
-0.471182
 30
0.0
 40
0.167829
210
0.0
220
0.0
230
1.0
100
AcDbArc
 50
354.390867
 51
379.9923
  0
ARC
  5
49F
100
AcDbEntity
  8
1
  6
SOLID
 62
     0
100
AcDbCircle
 10
-0.643252
 20
-0.404583
 30
0.0
 40
0.111251
210
0.0
220
0.0
230
1.0
100
AcDbArc
 50
55.605017
 51
102.165744
  0
ARC
  5
4A0
100
AcDbEntity
  8
1
  6
SOLID
 62
     0
100
AcDbCircle
 10
-0.647281
 20
-0.395816
 30
0.0
 40
0.106614
210
0.0
220
0.0
230
1.0
100
AcDbArc
 50
350.287399
 51
411.152472
  0
ARC
  5
4A1
100
AcDbEntity
  8
1
  6
SOLID
 62
     0
100
AcDbCircle
 10
-0.675129
 20
0.078893
 30
0.0
 40
0.047182
210
0.0
220
0.0
230
1.0
100
AcDbArc
 50
257.702846
 51
310.092511
  0
LINE
  5
4A2
100
AcDbEntity
  8
1
  6
SOLID
 62
     0
100
AcDbLine
 10
-0.695044
 20
0.0346
 30
0.0
 11
-0.685178
 21
0.032793
 31
0.0
  0
ARC
  5
4A3
100
AcDbEntity
  8
1
  6
SOLID
 62
     0
100
AcDbCircle
 10
-0.741165
 20
0.361698
 30
0.0
 40
0.17179
210
0.0
220
0.0
230
1.0
100
AcDbArc
 50
241.068921
 51
278.087136
  0
LINE
  5
4A4
100
AcDbEntity
  8
1
  6
SOLID
 62
     0
100
AcDbLine
 10
-0.82427
 20
0.211348
 30
0.0
 11
-0.879018
 21
0.247198
 31
0.0
  0
ARC
  5
4A5
100
AcDbEntity
  8
1
  6
SOLID
 62
     0
100
AcDbCircle
 10
-0.871792
 20
0.340518
 30
0.0
 40
0.019021
210
0.0
220
0.0
230
1.0
100
AcDbArc
 50
353.457918
 51
402.454652
  0
ARC
  5
4A6
100
AcDbEntity
  8
1
  6
SOLID
 62
     0
100
AcDbCircle
 10
-0.682675
 20
0.385481
 30
0.0
 40
0.178005
210
0.0
220
0.0
230
1.0
100
AcDbArc
 50
180.409724
 51
190.396782
  0
ARC
  5
4A7
100
AcDbEntity
  8
1
  6
SOLID
 62
     0
100
AcDbCircle
 10
-0.799944
 20
0.483487
 30
0.0
 40
0.079332
210
0.0
220
0.0
230
1.0
100
AcDbArc
 50
167.81573
 51
206.472261
  0
ARC
  5
4A8
100
AcDbEntity
  8
1
  6
SOLID
 62
     0
100
AcDbCircle
 10
-0.756983
 20
0.433673
 30
0.0
 40
0.114888
210
0.0
220
0.0
230
1.0
100
AcDbArc
 50
172.773887
 51
205.503672
  0
LINE
  5
4A9
100
AcDbEntity
  8
1
  6
SOLID
 62
     0
100
AcDbLine
 10
-1.009772
 20
0.539972
 30
0.0
 11
-1.008244
 21
0.451737
 31
0.0
  0
ARC
  5
4AA
100
AcDbEntity
  8
1
  6
SOLID
 62
     0
100
AcDbCircle
 10
-0.929173
 20
0.556422
 30
0.0
 40
0.082261
210
0.0
220
0.0
230
1.0
100
AcDbArc
 50
152.907582
 51
191.535262
  0
ARC
  5
4AB
100
AcDbEntity
  8
1
  6
SOLID
 62
     0
100
AcDbCircle
 10
-0.52689
 20
0.51054
 30
0.0
 40
0.48833
210
0.0
220
0.0
230
1.0
100
AcDbArc
 50
150.812981
 51
165.097294
  0
ARC
  5
4AC
100
AcDbEntity
  8
1
  6
SOLID
 62
     0
100
AcDbCircle
 10
-0.711149
 20
0.590252
 30
0.0
 40
0.291282
210
0.0
220
0.0
230
1.0
100
AcDbArc
 50
170.938393
 51
179.285359
  0
ARC
  5
4AD
100
AcDbEntity
  8
1
  6
SOLID
 62
     0
100
AcDbCircle
 10
-0.526175
 20
0.473002
 30
0.0
 40
0.550175
210
0.0
220
0.0
230
1.0
100
AcDbArc
 50
140.547757
 51
153.527968
  0
ARC
  5
4AE
100
AcDbEntity
  8
1
  6
SOLID
 62
     0
100
AcDbCircle
 10
-1.397549
 20
0.803157
 30
0.0
 40
0.388281
210
0.0
220
0.0
230
1.0
100
AcDbArc
 50
335.449032
 51
347.368733
  0
LINE
  5
4AF
100
AcDbEntity
  8
1
  6
SOLID
 62
     0
100
AcDbLine
 10
-1.121074
 20
0.802732
 30
0.0
 11
-1.116905
 21
0.799259
 31
0.0
  0
ARC
  5
4B0
100
AcDbEntity
  8
1
  6
SOLID
 62
     0
100
AcDbCircle
 10
-1.322524
 20
0.927327
 30
0.0
 40
0.242241
210
0.0
220
0.0
230
1.0
100
AcDbArc
 50
315.002495
 51
328.083629
  0
LINE
  5
4B1
100
AcDbEntity
  8
1
  6
SOLID
 62
     0
100
AcDbLine
 10
-2.730707
 20
1.002964
 30
0.0
 11
-1.063686
 21
1.002964
 31
0.0
  0
LINE
  5
4B2
100
AcDbEntity
  8
1
  6
SOLID
 62
     0
100
AcDbLine
 10
-0.893608
 20
1.005882
 30
0.0
 11
-0.876655
 21
1.007411
 31
0.0
  0
LINE
  5
4B3
100
AcDbEntity
  8
1
  6
SOLID
 62
     0
100
AcDbLine
 10
-1.063686
 20
1.002964
 30
0.0
 11
-0.893608
 21
1.005882
 31
0.0
  0
LINE
  5
4B4
100
AcDbEntity
  8
1
  6
SOLID
 62
     0
100
AcDbLine
 10
-0.876655
 20
1.007411
 30
0.0
 11
-0.862621
 21
1.011857
 31
0.0
  0
ARC
  5
4B5
100
AcDbEntity
  8
1
  6
SOLID
 62
     0
100
AcDbCircle
 10
-0.85558
 20
1.120511
 30
0.0
 40
0.108882
210
0.0
220
0.0
230
1.0
100
AcDbArc
 50
266.29211
 51
293.250822
  0
ARC
  5
4B6
100
AcDbEntity
  8
1
  6
SOLID
 62
     0
100
AcDbCircle
 10
-0.795584
 20
0.908103
 30
0.0
 40
0.113649
210
0.0
220
0.0
230
1.0
100
AcDbArc
 50
66.085424
 51
98.61003
  0
ARC
  5
4B7
100
AcDbEntity
  8
1
  6
SOLID
 62
     0
100
AcDbCircle
 10
-0.74022
 20
0.954326
 30
0.0
 40
0.058414
210
0.0
220
0.0
230
1.0
100
AcDbArc
 50
57.622341
 51
99.154573
  0
ARC
  5
4B8
100
AcDbEntity
  8
1
  6
SOLID
 62
     0
100
AcDbCircle
 10
-0.704974
 20
0.939889
 30
0.0
 40
0.063893
210
0.0
220
0.0
230
1.0
100
AcDbArc
 50
58.46953
 51
93.557998
  0
ARC
  5
4B9
100
AcDbEntity
  8
1
  6
SOLID
 62
     0
100
AcDbCircle
 10
-0.667655
 20
0.939592
 30
0.0
 40
0.054896
210
0.0
220
0.0
230
1.0
100
AcDbArc
 50
57.7359
 51
94.079429
  0
ARC
  5
4BA
100
AcDbEntity
  8
1
  6
SOLID
 62
     0
100
AcDbCircle
 10
-0.634544
 20
0.921603
 30
0.0
 40
0.064521
210
0.0
220
0.0
230
1.0
100
AcDbArc
 50
58.645954
 51
93.38234
  0
ARC
  5
4BB
100
AcDbEntity
  8
1
  6
SOLID
 62
     0
100
AcDbCircle
 10
-0.597065
 20
0.914075
 30
0.0
 40
0.062749
210
0.0
220
0.0
230
1.0
100
AcDbArc
 50
55.17546
 51
93.56963
  0
ARC
  5
4BC
100
AcDbEntity
  8
1
  6
SOLID
 62
     0
100
AcDbCircle
 10
-0.693385
 20
0.448577
 30
0.0
 40
0.533632
210
0.0
220
0.0
230
1.0
100
AcDbArc
 50
66.797041
 51
75.661543
  0
ARC
  5
4BD
100
AcDbEntity
  8
1
  6
SOLID
 62
     0
100
AcDbCircle
 10
-0.455425
 20
0.98097
 30
0.0
 40
0.050257
210
0.0
220
0.0
230
1.0
100
AcDbArc
 50
236.532101
 51
265.805127
  0
ARC
  5
4BE
100
AcDbEntity
  8
1
  6
SOLID
 62
     0
100
AcDbCircle
 10
-0.550954
 20
0.598977
 30
0.0
 40
0.334619
210
0.0
220
0.0
230
1.0
100
AcDbArc
 50
45.661601
 51
63.512474
  0
ARC
  5
4BF
100
AcDbEntity
  8
1
  6
SOLID
 62
     0
100
AcDbCircle
 10
-0.332969
 20
1.087373
 30
0.0
 40
0.201021
210
0.0
220
0.0
230
1.0
100
AcDbArc
 50
231.137181
 51
250.002638
  0
LINE
  5
4C0
100
AcDbEntity
  8
1
  6
SOLID
 62
     0
100
AcDbLine
 10
-0.416165
 20
0.807457
 30
0.0
 11
-0.521213
 21
0.862066
 31
0.0
  0
LINE
  5
4C1
100
AcDbEntity
  8
1
  6
SOLID
 62
     0
100
AcDbLine
 10
-0.521213
 20
0.862066
 30
0.0
 11
-0.535247
 21
0.867346
 31
0.0
  0
ARC
  5
4C2
100
AcDbEntity
  8
1
  6
SOLID
 62
     0
100
AcDbCircle
 10
-0.502714
 20
1.211769
 30
0.0
 40
0.338094
210
0.0
220
0.0
230
1.0
100
AcDbArc
 50
248.490359
 51
257.415514
  0
ARC
  5
4C3
100
AcDbEntity
  8
1
  6
SOLID
 62
     0
100
AcDbCircle
 10
-0.630899
 20
0.95021
 30
0.0
 40
0.053157
210
0.0
220
0.0
230
1.0
100
AcDbArc
 50
236.592579
 51
274.553169
  0
ARC
  5
4C4
100
AcDbEntity
  8
1
  6
SOLID
 62
     0
100
AcDbCircle
 10
-0.748307
 20
1.000977
 30
0.0
 40
0.077847
210
0.0
220
0.0
230
1.0
100
AcDbArc
 50
241.574546
 51
275.461092
  0
ARC
  5
4C5
100
AcDbEntity
  8
1
  6
SOLID
 62
     0
100
AcDbCircle
 10
-0.788925
 20
0.896106
 30
0.0
 40
0.036583
210
0.0
220
0.0
230
1.0
100
AcDbArc
 50
84.412286
 51
127.800472
  0
ARC
  5
4C6
100
AcDbEntity
  8
1
  6
SOLID
 62
     0
100
AcDbCircle
 10
-0.806713
 20
0.748469
 30
0.0
 40
0.162214
210
0.0
220
0.0
230
1.0
100
AcDbArc
 50
128.665249
 51
152.805498
  0
LINE
  5
4C7
100
AcDbEntity
  8
1
  6
SOLID
 62
     0
100
AcDbLine
 10
-0.869152
 20
0.910421
 30
0.0
 11
-2.517136
 21
0.914868
 31
0.0
  0
LINE
  5
4C8
100
AcDbEntity
  8
1
  6
SOLID
 62
     0
100
AcDbLine
 10
-2.566604
 20
0.808985
 30
0.0
 11
-1.194163
 21
0.808985
 31
0.0
  0
ARC
  5
4C9
100
AcDbEntity
  8
1
  6
SOLID
 62
     0
100
AcDbCircle
 10
-2.504553
 20
0.538751
 30
0.0
 40
0.058585
210
0.0
220
0.0
230
1.0
100
AcDbArc
 50
45.513423
 51
86.404027
  0
ARC
  5
4CA
100
AcDbEntity
  8
1
  6
SOLID
 62
     0
100
AcDbCircle
 10
-2.567013
 20
0.494452
 30
0.0
 40
0.134637
210
0.0
220
0.0
230
1.0
100
AcDbArc
 50
11.947927
 51
39.751233
  0
ARC
  5
4CB
100
AcDbEntity
  8
1
  6
SOLID
 62
     0
100
AcDbCircle
 10
-2.680129
 20
3.363485
 30
0.0
 40
2.863683
210
0.0
220
0.0
230
1.0
100
AcDbArc
 50
267.881057
 51
270.992574
  0
ARC
  5
4CC
100
AcDbEntity
  8
1
  6
SOLID
 62
     0
100
AcDbCircle
 10
-2.632569
 20
0.361209
 30
0.0
 40
0.139038
210
0.0
220
0.0
230
1.0
100
AcDbArc
 50
69.542251
 51
89.15657
  0
ARC
  5
4CD
100
AcDbEntity
  8
1
  6
SOLID
 62
     0
100
AcDbCircle
 10
-2.804575
 20
0.518844
 30
0.0
 40
0.076336
210
0.0
220
0.0
230
1.0
100
AcDbArc
 50
150.555609
 51
185.949851
  0
ARC
  5
4CE
100
AcDbEntity
  8
1
  6
SOLID
 62
     0
100
AcDbCircle
 10
-2.853215
 20
0.491408
 30
0.0
 40
0.033549
210
0.0
220
0.0
230
1.0
100
AcDbArc
 50
144.41475
 51
189.175367
  0
ARC
  5
4CF
100
AcDbEntity
  8
1
  6
SOLID
 62
     0
100
AcDbCircle
 10
-2.944244
 20
0.452318
 30
0.0
 40
0.067022
210
0.0
220
0.0
230
1.0
100
AcDbArc
 50
5.92857
 51
30.22706
  0
ARC
  5
4D0
100
AcDbEntity
  8
1
  6
SOLID
 62
     0
100
AcDbCircle
 10
-0.705838
 20
-0.459899
 30
0.0
 40
0.024929
210
0.0
220
0.0
230
1.0
100
AcDbArc
 50
-9.997614
 51
114.121567
  0
ARC
  5
4D1
100
AcDbEntity
  8
1
  6
SOLID
 62
     0
100
AcDbCircle
 10
-0.555426
 20
-0.639287
 30
0.0
 40
0.258173
210
0.0
220
0.0
230
1.0
100
AcDbArc
 50
128.466982
 51
152.018523
  0
ARC
  5
4D2
100
AcDbEntity
  8
1
  6
SOLID
 62
     0
100
AcDbCircle
 10
-0.711433
 20
-0.585271
 30
0.0
 40
0.098418
210
0.0
220
0.0
230
1.0
100
AcDbArc
 50
137.005129
 51
170.73764
  0
ARC
  5
4D3
100
AcDbEntity
  8
1
  6
SOLID
 62
     0
100
AcDbCircle
 10
-0.731976
 20
-0.679235
 30
0.0
 40
0.050047
210
0.0
220
0.0
230
1.0
100
AcDbArc
 50
102.053476
 51
147.930993
  0
LINE
  5
4D4
100
AcDbEntity
  8
1
  6
SOLID
 62
     0
100
AcDbLine
 10
-0.737424
 20
-0.636822
 30
0.0
 11
-0.742427
 21
-0.630291
 31
0.0
  0
ARC
  5
4D5
100
AcDbEntity
  8
1
  6
SOLID
 62
     0
100
AcDbCircle
 10
-0.731762
 20
-0.576499
 30
0.0
 40
0.075782
210
0.0
220
0.0
230
1.0
100
AcDbArc
 50
-5.062036
 51
27.387185
  0
ARC
  5
4D6
100
AcDbEntity
  8
1
  6
SOLID
 62
     0
100
AcDbCircle
 10
-0.708134
 20
-0.614134
 30
0.0
 40
0.06039
210
0.0
220
0.0
230
1.0
100
AcDbArc
 50
-7.175103
 51
30.827444
  0
ARC
  5
4D7
100
AcDbEntity
  8
1
  6
SOLID
 62
     0
100
AcDbCircle
 10
-0.629644
 20
-0.652026
 30
0.0
 40
0.123051
210
0.0
220
0.0
230
1.0
100
AcDbArc
 50
355.947686
 51
382.467069
  0
ARC
  5
4D8
100
AcDbEntity
  8
1
  6
SOLID
 62
     0
100
AcDbCircle
 10
-0.624591
 20
-0.597962
 30
0.0
 40
0.108885
210
0.0
220
0.0
230
1.0
100
AcDbArc
 50
356.292911
 51
383.250679
  0
ARC
  5
4D9
100
AcDbEntity
  8
1
  6
SOLID
 62
     0
100
AcDbCircle
 10
-0.657817
 20
-0.537254
 30
0.0
 40
0.134442
210
0.0
220
0.0
230
1.0
100
AcDbArc
 50
352.423992
 51
381.680519
  0
ARC
  5
4DA
100
AcDbEntity
  8
1
  6
SOLID
 62
     0
100
AcDbCircle
 10
-0.312234
 20
-0.254944
 30
0.0
 40
0.091512
210
0.0
220
0.0
230
1.0
100
AcDbArc
 50
151.351203
 51
174.882008
  0
ARC
  5
4DB
100
AcDbEntity
  8
1
  6
SOLID
 62
     0
100
AcDbCircle
 10
-0.435906
 20
-0.243127
 30
0.0
 40
0.03273
210
0.0
220
0.0
230
1.0
100
AcDbArc
 50
256.765416
 51
353.582098
  0
LINE
  5
4DD
100
AcDbEntity
  8
4
  6
SOLID
 62
     0
100
AcDbLine
 10
-0.209652
 20
4.858527
 30
0.0
 11
-0.14463
 21
4.713494
 31
0.0
  0
LINE
  5
4DE
100
AcDbEntity
  8
4
  6
SOLID
 62
     0
100
AcDbLine
 10
0.209652
 20
4.858527
 30
0.0
 11
0.14463
 21
4.713494
 31
0.0
  0
ARC
  5
4DF
100
AcDbEntity
  8
4
  6
SOLID
 62
     0
100
AcDbCircle
 10
-0.4396
 20
4.755436
 30
0.0
 40
0.252
210
0.0
220
0.0
230
1.0
100
AcDbArc
 50
24.147875
 51
44.024097
  0
ARC
  5
4E0
100
AcDbEntity
  8
4
  6
SOLID
 62
     0
100
AcDbCircle
 10
0.4396
 20
4.755436
 30
0.0
 40
0.252
210
0.0
220
0.0
230
1.0
100
AcDbArc
 50
135.975903
 51
155.852125
  0
ARC
  5
4E1
100
AcDbEntity
  8
4
  6
SOLID
 62
     0
100
AcDbCircle
 10
0.0
 20
4.778336
 30
0.0
 40
0.1585
210
0.0
220
0.0
230
1.0
100
AcDbArc
 50
204.147874
 51
335.852126
  0
LINE
  5
4E2
100
AcDbEntity
  8
4
  6
SOLID
 62
     0
100
AcDbLine
 10
-0.716358
 20
4.809997
 30
0.0
 11
-0.636532
 21
4.672555
 31
0.0
  0
LINE
  5
4E3
100
AcDbEntity
  8
4
  6
SOLID
 62
     0
100
AcDbLine
 10
-0.299351
 20
4.853826
 30
0.0
 11
-0.348857
 21
4.702791
 31
0.0
  0
ARC
  5
4E4
100
AcDbEntity
  8
4
  6
SOLID
 62
     0
100
AcDbCircle
 10
-0.93427
 20
4.683434
 30
0.0
 40
0.252
210
0.0
220
0.0
230
1.0
100
AcDbArc
 50
30.147875
 51
50.024097
  0
ARC
  5
4E5
100
AcDbEntity
  8
4
  6
SOLID
 62
     0
100
AcDbCircle
 10
-0.059887
 20
4.775336
 30
0.0
 40
0.252
210
0.0
220
0.0
230
1.0
100
AcDbArc
 50
141.975903
 51
161.852125
  0
ARC
  5
4E6
100
AcDbEntity
  8
4
  6
SOLID
 62
     0
100
AcDbCircle
 10
-0.499472
 20
4.752159
 30
0.0
 40
0.1585
210
0.0
220
0.0
230
1.0
100
AcDbArc
 50
210.147874
 51
341.852126
  0
LINE
  5
4E7
100
AcDbEntity
  8
4
  6
SOLID
 62
     0
100
AcDbLine
 10
-1.215215
 20
4.708768
 30
0.0
 11
-1.12146
 21
4.580423
 31
0.0
  0
LINE
  5
4E8
100
AcDbEntity
  8
4
  6
SOLID
 62
     0
100
AcDbLine
 10
-0.805074
 20
4.795946
 30
0.0
 11
-0.838521
 21
4.640564
 31
0.0
  0
ARC
  5
4E9
100
AcDbEntity
  8
4
  6
SOLID
 62
     0
100
AcDbCircle
 10
-1.418704
 20
4.56012
 30
0.0
 40
0.252
210
0.0
220
0.0
230
1.0
100
AcDbArc
 50
36.147875
 51
56.024097
  0
ARC
  5
4EA
100
AcDbEntity
  8
4
  6
SOLID
 62
     0
100
AcDbCircle
 10
-0.558717
 20
4.742916
 30
0.0
 40
0.252
210
0.0
220
0.0
230
1.0
100
AcDbArc
 50
147.975903
 51
167.852125
  0
ARC
  5
4EB
100
AcDbEntity
  8
4
  6
SOLID
 62
     0
100
AcDbCircle
 10
-0.993472
 20
4.673918
 30
0.0
 40
0.1585
210
0.0
220
0.0
230
1.0
100
AcDbArc
 50
216.147874
 51
347.852126
  0
LINE
  5
4EC
100
AcDbEntity
  8
4
  6
SOLID
 62
     0
100
AcDbLine
 10
-1.700758
 20
4.555948
 30
0.0
 11
-1.594101
 21
4.438106
 31
0.0
  0
LINE
  5
4ED
100
AcDbEntity
  8
4
  6
SOLID
 62
     0
100
AcDbLine
 10
-1.301977
 20
4.68552
 30
0.0
 11
-1.318998
 21
4.527493
 31
0.0
  0
ARC
  5
4EE
100
AcDbEntity
  8
4
  6
SOLID
 62
     0
100
AcDbCircle
 10
-1.887595
 20
4.386844
 30
0.0
 40
0.252
210
0.0
220
0.0
230
1.0
100
AcDbArc
 50
42.147875
 51
62.024097
  0
ARC
  5
4EF
100
AcDbEntity
  8
4
  6
SOLID
 62
     0
100
AcDbCircle
 10
-1.051426
 20
4.658532
 30
0.0
 40
0.252
210
0.0
220
0.0
230
1.0
100
AcDbArc
 50
153.975903
 51
173.852125
  0
ARC
  5
4F0
100
AcDbEntity
  8
4
  6
SOLID
 62
     0
100
AcDbCircle
 10
-1.476587
 20
4.544467
 30
0.0
 40
0.1585
210
0.0
220
0.0
230
1.0
100
AcDbArc
 50
222.147874
 51
353.852126
  0
LINE
  5
4F1
100
AcDbEntity
  8
4
  6
SOLID
 62
     0
100
AcDbLine
 10
-2.167668
 20
4.353212
 30
0.0
 11
-2.049277
 21
4.247165
 31
0.0
  0
LINE
  5
4F2
100
AcDbEntity
  8
4
  6
SOLID
 62
     0
100
AcDbLine
 10
-1.784615
 20
4.523758
 30
0.0
 11
-1.785025
 21
4.364818
 31
0.0
  0
ARC
  5
4F3
100
AcDbEntity
  8
4
  6
SOLID
 62
     0
100
AcDbCircle
 10
-2.335805
 20
4.165505
 30
0.0
 40
0.252
210
0.0
220
0.0
230
1.0
100
AcDbArc
 50
48.147875
 51
68.024097
  0
ARC
  5
4F4
100
AcDbEntity
  8
4
  6
SOLID
 62
     0
100
AcDbCircle
 10
-1.532615
 20
4.523108
 30
0.0
 40
0.252
210
0.0
220
0.0
230
1.0
100
AcDbArc
 50
159.975903
 51
179.852125
  0
ARC
  5
4F5
100
AcDbEntity
  8
4
  6
SOLID
 62
     0
100
AcDbCircle
 10
-1.943524
 20
4.365227
 30
0.0
 40
0.1585
210
0.0
220
0.0
230
1.0
100
AcDbArc
 50
228.147874
 51
359.852126
  0
LINE
  5
4F6
100
AcDbEntity
  8
4
  6
SOLID
 62
     0
100
AcDbLine
 10
-2.610827
 20
4.102782
 30
0.0
 11
-2.482001
 21
4.009691
 31
0.0
  0
LINE
  5
4F7
100
AcDbEntity
  8
4
  6
SOLID
 62
     0
100
AcDbLine
 10
-2.2477
 20
4.312434
 30
0.0
 11
-2.231494
 21
4.154321
 31
0.0
  0
ARC
  5
4F8
100
AcDbEntity
  8
4
  6
SOLID
 62
     0
100
AcDbCircle
 10
-2.758423
 20
3.898528
 30
0.0
 40
0.252
210
0.0
220
0.0
230
1.0
100
AcDbArc
 50
54.147875
 51
74.024097
  0
ARC
  5
4F9
100
AcDbEntity
  8
4
  6
SOLID
 62
     0
100
AcDbCircle
 10
-1.997013
 20
4.338128
 30
0.0
 40
0.252
210
0.0
220
0.0
230
1.0
100
AcDbArc
 50
165.975903
 51
185.852125
  0
ARC
  5
4FA
100
AcDbEntity
  8
4
  6
SOLID
 62
     0
100
AcDbCircle
 10
-2.389168
 20
4.13816
 30
0.0
 40
0.1585
210
0.0
220
0.0
230
1.0
100
AcDbArc
 50
234.147874
 51
365.852126
  0
LINE
  5
4FB
100
AcDbEntity
  8
4
  6
SOLID
 62
     0
100
AcDbLine
 10
-3.025383
 20
3.807401
 30
0.0
 11
-2.887531
 21
3.728286
 31
0.0
  0
LINE
  5
4FC
100
AcDbEntity
  8
4
  6
SOLID
 62
     0
100
AcDbLine
 10
-2.686159
 20
4.053861
 30
0.0
 11
-2.653514
 21
3.898309
 31
0.0
  0
ARC
  5
4FD
100
AcDbEntity
  8
4
  6
SOLID
 62
     0
100
AcDbCircle
 10
-3.150819
 20
3.588838
 30
0.0
 40
0.252
210
0.0
220
0.0
230
1.0
100
AcDbArc
 50
60.147875
 51
80.024097
  0
ARC
  5
4FE
100
AcDbEntity
  8
4
  6
SOLID
 62
     0
100
AcDbCircle
 10
-2.439531
 20
4.105619
 30
0.0
 40
0.252
210
0.0
220
0.0
230
1.0
100
AcDbArc
 50
171.975903
 51
191.852125
  0
ARC
  5
4FF
100
AcDbEntity
  8
4
  6
SOLID
 62
     0
100
AcDbCircle
 10
-2.808635
 20
3.865755
 30
0.0
 40
0.1585
210
0.0
220
0.0
230
1.0
100
AcDbArc
 50
240.147874
 51
371.852126
  0
LINE
  5
500
100
AcDbEntity
  8
4
  6
SOLID
 62
     0
100
AcDbLine
 10
-3.406791
 20
3.470305
 30
0.0
 11
-3.261424
 21
3.406033
 31
0.0
  0
LINE
  5
501
100
AcDbEntity
  8
4
  6
SOLID
 62
     0
100
AcDbLine
 10
-3.095188
 20
3.750874
 30
0.0
 11
-3.046462
 21
3.599585
 31
0.0
  0
ARC
  5
502
100
AcDbEntity
  8
4
  6
SOLID
 62
     0
100
AcDbCircle
 10
-3.508694
 20
3.239828
 30
0.0
 40
0.252
210
0.0
220
0.0
230
1.0
100
AcDbArc
 50
66.147875
 51
86.024097
  0
ARC
  5
503
100
AcDbEntity
  8
4
  6
SOLID
 62
     0
100
AcDbCircle
 10
-2.855321
 20
3.828127
 30
0.0
 40
0.252
210
0.0
220
0.0
230
1.0
100
AcDbArc
 50
177.975903
 51
197.852125
  0
ARC
  5
504
100
AcDbEntity
  8
4
  6
SOLID
 62
     0
100
AcDbCircle
 10
-3.197331
 20
3.550995
 30
0.0
 40
0.1585
210
0.0
220
0.0
230
1.0
100
AcDbArc
 50
246.147874
 51
377.852126
  0
LINE
  5
505
100
AcDbEntity
  8
4
  6
SOLID
 62
     0
100
AcDbLine
 10
-3.750874
 20
3.095188
 30
0.0
 11
-3.599585
 21
3.046462
 31
0.0
  0
LINE
  5
506
100
AcDbEntity
  8
4
  6
SOLID
 62
     0
100
AcDbLine
 10
-3.470305
 20
3.406791
 30
0.0
 11
-3.406033
 21
3.261425
 31
0.0
  0
ARC
  5
507
100
AcDbEntity
  8
4
  6
SOLID
 62
     0
100
AcDbCircle
 10
-3.828127
 20
2.855321
 30
0.0
 40
0.252
210
0.0
220
0.0
230
1.0
100
AcDbArc
 50
72.147875
 51
92.024097
  0
ARC
  5
508
100
AcDbEntity
  8
4
  6
SOLID
 62
     0
100
AcDbCircle
 10
-3.239828
 20
3.508694
 30
0.0
 40
0.252
210
0.0
220
0.0
230
1.0
100
AcDbArc
 50
183.975903
 51
203.852125
  0
ARC
  5
509
100
AcDbEntity
  8
4
  6
SOLID
 62
     0
100
AcDbCircle
 10
-3.550995
 20
3.197331
 30
0.0
 40
0.1585
210
0.0
220
0.0
230
1.0
100
AcDbArc
 50
252.147874
 51
383.852126
  0
LINE
  5
50A
100
AcDbEntity
  8
4
  6
SOLID
 62
     0
100
AcDbLine
 10
-4.053861
 20
2.686159
 30
0.0
 11
-3.898309
 21
2.653514
 31
0.0
  0
LINE
  5
50B
100
AcDbEntity
  8
4
  6
SOLID
 62
     0
100
AcDbLine
 10
-3.807401
 20
3.025383
 30
0.0
 11
-3.728286
 21
2.887531
 31
0.0
  0
ARC
  5
50C
100
AcDbEntity
  8
4
  6
SOLID
 62
     0
100
AcDbCircle
 10
-4.105619
 20
2.439531
 30
0.0
 40
0.252
210
0.0
220
0.0
230
1.0
100
AcDbArc
 50
78.147875
 51
98.024097
  0
ARC
  5
50D
100
AcDbEntity
  8
4
  6
SOLID
 62
     0
100
AcDbCircle
 10
-3.588838
 20
3.150819
 30
0.0
 40
0.252
210
0.0
220
0.0
230
1.0
100
AcDbArc
 50
189.975903
 51
209.852125
  0
ARC
  5
50E
100
AcDbEntity
  8
4
  6
SOLID
 62
     0
100
AcDbCircle
 10
-3.865755
 20
2.808635
 30
0.0
 40
0.1585
210
0.0
220
0.0
230
1.0
100
AcDbArc
 50
258.147874
 51
389.852126
  0
LINE
  5
50F
100
AcDbEntity
  8
4
  6
SOLID
 62
     0
100
AcDbLine
 10
-4.312434
 20
2.2477
 30
0.0
 11
-4.154321
 21
2.231494
 31
0.0
  0
LINE
  5
510
100
AcDbEntity
  8
4
  6
SOLID
 62
     0
100
AcDbLine
 10
-4.102782
 20
2.610827
 30
0.0
 11
-4.009691
 21
2.482001
 31
0.0
  0
ARC
  5
511
100
AcDbEntity
  8
4
  6
SOLID
 62
     0
100
AcDbCircle
 10
-4.338128
 20
1.997013
 30
0.0
 40
0.252
210
0.0
220
0.0
230
1.0
100
AcDbArc
 50
84.147875
 51
104.024097
  0
ARC
  5
512
100
AcDbEntity
  8
4
  6
SOLID
 62
     0
100
AcDbCircle
 10
-3.898528
 20
2.758423
 30
0.0
 40
0.252
210
0.0
220
0.0
230
1.0
100
AcDbArc
 50
195.975903
 51
215.852125
  0
ARC
  5
513
100
AcDbEntity
  8
4
  6
SOLID
 62
     0
100
AcDbCircle
 10
-4.13816
 20
2.389168
 30
0.0
 40
0.1585
210
0.0
220
0.0
230
1.0
100
AcDbArc
 50
264.147874
 51
395.852126
  0
LINE
  5
514
100
AcDbEntity
  8
4
  6
SOLID
 62
     0
100
AcDbLine
 10
-4.523758
 20
1.784615
 30
0.0
 11
-4.364818
 21
1.785025
 31
0.0
  0
LINE
  5
515
100
AcDbEntity
  8
4
  6
SOLID
 62
     0
100
AcDbLine
 10
-4.353212
 20
2.167668
 30
0.0
 11
-4.247165
 21
2.049277
 31
0.0
  0
ARC
  5
516
100
AcDbEntity
  8
4
  6
SOLID
 62
     0
100
AcDbCircle
 10
-4.523108
 20
1.532615
 30
0.0
 40
0.252
210
0.0
220
0.0
230
1.0
100
AcDbArc
 50
90.147875
 51
110.024097
  0
ARC
  5
517
100
AcDbEntity
  8
4
  6
SOLID
 62
     0
100
AcDbCircle
 10
-4.165505
 20
2.335805
 30
0.0
 40
0.252
210
0.0
220
0.0
230
1.0
100
AcDbArc
 50
201.975903
 51
221.852125
  0
ARC
  5
518
100
AcDbEntity
  8
4
  6
SOLID
 62
     0
100
AcDbCircle
 10
-4.365227
 20
1.943524
 30
0.0
 40
0.1585
210
0.0
220
0.0
230
1.0
100
AcDbArc
 50
270.147874
 51
401.852126
  0
LINE
  5
519
100
AcDbEntity
  8
4
  6
SOLID
 62
     0
100
AcDbLine
 10
-4.68552
 20
1.301977
 30
0.0
 11
-4.527493
 21
1.318999
 31
0.0
  0
LINE
  5
51A
100
AcDbEntity
  8
4
  6
SOLID
 62
     0
100
AcDbLine
 10
-4.555948
 20
1.700758
 30
0.0
 11
-4.438106
 21
1.594101
 31
0.0
  0
ARC
  5
51B
100
AcDbEntity
  8
4
  6
SOLID
 62
     0
100
AcDbCircle
 10
-4.658532
 20
1.051426
 30
0.0
 40
0.252
210
0.0
220
0.0
230
1.0
100
AcDbArc
 50
96.147875
 51
116.024097
  0
ARC
  5
51C
100
AcDbEntity
  8
4
  6
SOLID
 62
     0
100
AcDbCircle
 10
-4.386844
 20
1.887595
 30
0.0
 40
0.252
210
0.0
220
0.0
230
1.0
100
AcDbArc
 50
207.975903
 51
227.852125
  0
ARC
  5
51D
100
AcDbEntity
  8
4
  6
SOLID
 62
     0
100
AcDbCircle
 10
-4.544467
 20
1.476587
 30
0.0
 40
0.1585
210
0.0
220
0.0
230
1.0
100
AcDbArc
 50
276.147874
 51
407.852126
  0
LINE
  5
51E
100
AcDbEntity
  8
4
  6
SOLID
 62
     0
100
AcDbLine
 10
-4.795946
 20
0.805074
 30
0.0
 11
-4.640564
 21
0.838521
 31
0.0
  0
LINE
  5
51F
100
AcDbEntity
  8
4
  6
SOLID
 62
     0
100
AcDbLine
 10
-4.708768
 20
1.215215
 30
0.0
 11
-4.580423
 21
1.12146
 31
0.0
  0
ARC
  5
520
100
AcDbEntity
  8
4
  6
SOLID
 62
     0
100
AcDbCircle
 10
-4.742916
 20
0.558717
 30
0.0
 40
0.252
210
0.0
220
0.0
230
1.0
100
AcDbArc
 50
102.147875
 51
122.024097
  0
ARC
  5
521
100
AcDbEntity
  8
4
  6
SOLID
 62
     0
100
AcDbCircle
 10
-4.56012
 20
1.418704
 30
0.0
 40
0.252
210
0.0
220
0.0
230
1.0
100
AcDbArc
 50
213.975903
 51
233.852125
  0
ARC
  5
522
100
AcDbEntity
  8
4
  6
SOLID
 62
     0
100
AcDbCircle
 10
-4.673918
 20
0.993472
 30
0.0
 40
0.1585
210
0.0
220
0.0
230
1.0
100
AcDbArc
 50
282.147874
 51
413.852126
  0
LINE
  5
523
100
AcDbEntity
  8
4
  6
SOLID
 62
     0
100
AcDbLine
 10
-4.853826
 20
0.299351
 30
0.0
 11
-4.702791
 21
0.348857
 31
0.0
  0
LINE
  5
524
100
AcDbEntity
  8
4
  6
SOLID
 62
     0
100
AcDbLine
 10
-4.809997
 20
0.716358
 30
0.0
 11
-4.672555
 21
0.636532
 31
0.0
  0
ARC
  5
525
100
AcDbEntity
  8
4
  6
SOLID
 62
     0
100
AcDbCircle
 10
-4.775336
 20
0.059887
 30
0.0
 40
0.252
210
0.0
220
0.0
230
1.0
100
AcDbArc
 50
108.147875
 51
128.024097
  0
ARC
  5
526
100
AcDbEntity
  8
4
  6
SOLID
 62
     0
100
AcDbCircle
 10
-4.683434
 20
0.93427
 30
0.0
 40
0.252
210
0.0
220
0.0
230
1.0
100
AcDbArc
 50
219.975903
 51
239.852125
  0
ARC
  5
527
100
AcDbEntity
  8
4
  6
SOLID
 62
     0
100
AcDbCircle
 10
-4.752159
 20
0.499472
 30
0.0
 40
0.1585
210
0.0
220
0.0
230
1.0
100
AcDbArc
 50
288.147874
 51
419.852126
  0
LINE
  5
528
100
AcDbEntity
  8
4
  6
SOLID
 62
     0
100
AcDbLine
 10
-4.858527
 20
-0.209652
 30
0.0
 11
-4.713494
 21
-0.14463
 31
0.0
  0
LINE
  5
529
100
AcDbEntity
  8
4
  6
SOLID
 62
     0
100
AcDbLine
 10
-4.858527
 20
0.209652
 30
0.0
 11
-4.713494
 21
0.14463
 31
0.0
  0
ARC
  5
52A
100
AcDbEntity
  8
4
  6
SOLID
 62
     0
100
AcDbCircle
 10
-4.755436
 20
-0.4396
 30
0.0
 40
0.252
210
0.0
220
0.0
230
1.0
100
AcDbArc
 50
114.147875
 51
134.024097
  0
ARC
  5
52B
100
AcDbEntity
  8
4
  6
SOLID
 62
     0
100
AcDbCircle
 10
-4.755436
 20
0.4396
 30
0.0
 40
0.252
210
0.0
220
0.0
230
1.0
100
AcDbArc
 50
225.975903
 51
245.852125
  0
ARC
  5
52C
100
AcDbEntity
  8
4
  6
SOLID
 62
     0
100
AcDbCircle
 10
-4.778336
 20
0.0
 30
0.0
 40
0.1585
210
0.0
220
0.0
230
1.0
100
AcDbArc
 50
294.147874
 51
425.852126
  0
LINE
  5
52D
100
AcDbEntity
  8
4
  6
SOLID
 62
     0
100
AcDbLine
 10
-4.809997
 20
-0.716358
 30
0.0
 11
-4.672555
 21
-0.636532
 31
0.0
  0
LINE
  5
52E
100
AcDbEntity
  8
4
  6
SOLID
 62
     0
100
AcDbLine
 10
-4.853826
 20
-0.299351
 30
0.0
 11
-4.702791
 21
-0.348857
 31
0.0
  0
ARC
  5
52F
100
AcDbEntity
  8
4
  6
SOLID
 62
     0
100
AcDbCircle
 10
-4.683434
 20
-0.93427
 30
0.0
 40
0.252
210
0.0
220
0.0
230
1.0
100
AcDbArc
 50
120.147875
 51
140.024097
  0
ARC
  5
530
100
AcDbEntity
  8
4
  6
SOLID
 62
     0
100
AcDbCircle
 10
-4.775336
 20
-0.059887
 30
0.0
 40
0.252
210
0.0
220
0.0
230
1.0
100
AcDbArc
 50
231.975903
 51
251.852125
  0
ARC
  5
531
100
AcDbEntity
  8
4
  6
SOLID
 62
     0
100
AcDbCircle
 10
-4.752159
 20
-0.499472
 30
0.0
 40
0.1585
210
0.0
220
0.0
230
1.0
100
AcDbArc
 50
300.147874
 51
431.852126
  0
LINE
  5
532
100
AcDbEntity
  8
4
  6
SOLID
 62
     0
100
AcDbLine
 10
-4.708768
 20
-1.215215
 30
0.0
 11
-4.580423
 21
-1.12146
 31
0.0
  0
LINE
  5
533
100
AcDbEntity
  8
4
  6
SOLID
 62
     0
100
AcDbLine
 10
-4.795946
 20
-0.805074
 30
0.0
 11
-4.640564
 21
-0.838521
 31
0.0
  0
ARC
  5
534
100
AcDbEntity
  8
4
  6
SOLID
 62
     0
100
AcDbCircle
 10
-4.56012
 20
-1.418704
 30
0.0
 40
0.252
210
0.0
220
0.0
230
1.0
100
AcDbArc
 50
126.147875
 51
146.024097
  0
ARC
  5
535
100
AcDbEntity
  8
4
  6
SOLID
 62
     0
100
AcDbCircle
 10
-4.742916
 20
-0.558717
 30
0.0
 40
0.252
210
0.0
220
0.0
230
1.0
100
AcDbArc
 50
237.975903
 51
257.852125
  0
ARC
  5
536
100
AcDbEntity
  8
4
  6
SOLID
 62
     0
100
AcDbCircle
 10
-4.673918
 20
-0.993472
 30
0.0
 40
0.1585
210
0.0
220
0.0
230
1.0
100
AcDbArc
 50
306.147874
 51
437.852126
  0
LINE
  5
537
100
AcDbEntity
  8
4
  6
SOLID
 62
     0
100
AcDbLine
 10
-4.555948
 20
-1.700758
 30
0.0
 11
-4.438106
 21
-1.594101
 31
0.0
  0
LINE
  5
538
100
AcDbEntity
  8
4
  6
SOLID
 62
     0
100
AcDbLine
 10
-4.68552
 20
-1.301977
 30
0.0
 11
-4.527493
 21
-1.318998
 31
0.0
  0
ARC
  5
539
100
AcDbEntity
  8
4
  6
SOLID
 62
     0
100
AcDbCircle
 10
-4.386844
 20
-1.887595
 30
0.0
 40
0.252
210
0.0
220
0.0
230
1.0
100
AcDbArc
 50
132.147875
 51
152.024097
  0
ARC
  5
53A
100
AcDbEntity
  8
4
  6
SOLID
 62
     0
100
AcDbCircle
 10
-4.658532
 20
-1.051426
 30
0.0
 40
0.252
210
0.0
220
0.0
230
1.0
100
AcDbArc
 50
243.975903
 51
263.852125
  0
ARC
  5
53B
100
AcDbEntity
  8
4
  6
SOLID
 62
     0
100
AcDbCircle
 10
-4.544467
 20
-1.476587
 30
0.0
 40
0.1585
210
0.0
220
0.0
230
1.0
100
AcDbArc
 50
312.147874
 51
443.852126
  0
LINE
  5
53C
100
AcDbEntity
  8
4
  6
SOLID
 62
     0
100
AcDbLine
 10
-4.353212
 20
-2.167668
 30
0.0
 11
-4.247165
 21
-2.049277
 31
0.0
  0
LINE
  5
53D
100
AcDbEntity
  8
4
  6
SOLID
 62
     0
100
AcDbLine
 10
-4.523758
 20
-1.784615
 30
0.0
 11
-4.364818
 21
-1.785025
 31
0.0
  0
ARC
  5
53E
100
AcDbEntity
  8
4
  6
SOLID
 62
     0
100
AcDbCircle
 10
-4.165505
 20
-2.335805
 30
0.0
 40
0.252
210
0.0
220
0.0
230
1.0
100
AcDbArc
 50
138.147875
 51
158.024097
  0
ARC
  5
53F
100
AcDbEntity
  8
4
  6
SOLID
 62
     0
100
AcDbCircle
 10
-4.523108
 20
-1.532615
 30
0.0
 40
0.252
210
0.0
220
0.0
230
1.0
100
AcDbArc
 50
249.975903
 51
269.852125
  0
ARC
  5
540
100
AcDbEntity
  8
4
  6
SOLID
 62
     0
100
AcDbCircle
 10
-4.365227
 20
-1.943524
 30
0.0
 40
0.1585
210
0.0
220
0.0
230
1.0
100
AcDbArc
 50
318.147874
 51
449.852126
  0
LINE
  5
541
100
AcDbEntity
  8
4
  6
SOLID
 62
     0
100
AcDbLine
 10
-4.102782
 20
-2.610827
 30
0.0
 11
-4.009691
 21
-2.482001
 31
0.0
  0
LINE
  5
542
100
AcDbEntity
  8
4
  6
SOLID
 62
     0
100
AcDbLine
 10
-4.312434
 20
-2.2477
 30
0.0
 11
-4.154321
 21
-2.231494
 31
0.0
  0
ARC
  5
543
100
AcDbEntity
  8
4
  6
SOLID
 62
     0
100
AcDbCircle
 10
-3.898528
 20
-2.758423
 30
0.0
 40
0.252
210
0.0
220
0.0
230
1.0
100
AcDbArc
 50
144.147875
 51
164.024097
  0
ARC
  5
544
100
AcDbEntity
  8
4
  6
SOLID
 62
     0
100
AcDbCircle
 10
-4.338128
 20
-1.997013
 30
0.0
 40
0.252
210
0.0
220
0.0
230
1.0
100
AcDbArc
 50
255.975903
 51
275.852125
  0
ARC
  5
545
100
AcDbEntity
  8
4
  6
SOLID
 62
     0
100
AcDbCircle
 10
-4.13816
 20
-2.389168
 30
0.0
 40
0.1585
210
0.0
220
0.0
230
1.0
100
AcDbArc
 50
324.147874
 51
455.852126
  0
LINE
  5
546
100
AcDbEntity
  8
4
  6
SOLID
 62
     0
100
AcDbLine
 10
-3.807401
 20
-3.025383
 30
0.0
 11
-3.728286
 21
-2.887531
 31
0.0
  0
LINE
  5
547
100
AcDbEntity
  8
4
  6
SOLID
 62
     0
100
AcDbLine
 10
-4.053861
 20
-2.686159
 30
0.0
 11
-3.898309
 21
-2.653514
 31
0.0
  0
ARC
  5
548
100
AcDbEntity
  8
4
  6
SOLID
 62
     0
100
AcDbCircle
 10
-3.588838
 20
-3.150819
 30
0.0
 40
0.252
210
0.0
220
0.0
230
1.0
100
AcDbArc
 50
150.147875
 51
170.024097
  0
ARC
  5
549
100
AcDbEntity
  8
4
  6
SOLID
 62
     0
100
AcDbCircle
 10
-4.105619
 20
-2.439531
 30
0.0
 40
0.252
210
0.0
220
0.0
230
1.0
100
AcDbArc
 50
261.975903
 51
281.852125
  0
ARC
  5
54A
100
AcDbEntity
  8
4
  6
SOLID
 62
     0
100
AcDbCircle
 10
-3.865755
 20
-2.808635
 30
0.0
 40
0.1585
210
0.0
220
0.0
230
1.0
100
AcDbArc
 50
330.147874
 51
461.852126
  0
LINE
  5
54B
100
AcDbEntity
  8
4
  6
SOLID
 62
     0
100
AcDbLine
 10
-3.470305
 20
-3.406791
 30
0.0
 11
-3.406033
 21
-3.261424
 31
0.0
  0
LINE
  5
54C
100
AcDbEntity
  8
4
  6
SOLID
 62
     0
100
AcDbLine
 10
-3.750874
 20
-3.095188
 30
0.0
 11
-3.599585
 21
-3.046462
 31
0.0
  0
ARC
  5
54D
100
AcDbEntity
  8
4
  6
SOLID
 62
     0
100
AcDbCircle
 10
-3.239828
 20
-3.508694
 30
0.0
 40
0.252
210
0.0
220
0.0
230
1.0
100
AcDbArc
 50
156.147875
 51
176.024097
  0
ARC
  5
54E
100
AcDbEntity
  8
4
  6
SOLID
 62
     0
100
AcDbCircle
 10
-3.828127
 20
-2.855321
 30
0.0
 40
0.252
210
0.0
220
0.0
230
1.0
100
AcDbArc
 50
267.975903
 51
287.852125
  0
ARC
  5
54F
100
AcDbEntity
  8
4
  6
SOLID
 62
     0
100
AcDbCircle
 10
-3.550995
 20
-3.197331
 30
0.0
 40
0.1585
210
0.0
220
0.0
230
1.0
100
AcDbArc
 50
336.147874
 51
467.852126
  0
LINE
  5
550
100
AcDbEntity
  8
4
  6
SOLID
 62
     0
100
AcDbLine
 10
-3.095188
 20
-3.750874
 30
0.0
 11
-3.046462
 21
-3.599585
 31
0.0
  0
LINE
  5
551
100
AcDbEntity
  8
4
  6
SOLID
 62
     0
100
AcDbLine
 10
-3.406791
 20
-3.470305
 30
0.0
 11
-3.261425
 21
-3.406033
 31
0.0
  0
ARC
  5
552
100
AcDbEntity
  8
4
  6
SOLID
 62
     0
100
AcDbCircle
 10
-2.855321
 20
-3.828127
 30
0.0
 40
0.252
210
0.0
220
0.0
230
1.0
100
AcDbArc
 50
162.147875
 51
182.024097
  0
ARC
  5
553
100
AcDbEntity
  8
4
  6
SOLID
 62
     0
100
AcDbCircle
 10
-3.508694
 20
-3.239828
 30
0.0
 40
0.252
210
0.0
220
0.0
230
1.0
100
AcDbArc
 50
273.975903
 51
293.852125
  0
ARC
  5
554
100
AcDbEntity
  8
4
  6
SOLID
 62
     0
100
AcDbCircle
 10
-3.197331
 20
-3.550995
 30
0.0
 40
0.1585
210
0.0
220
0.0
230
1.0
100
AcDbArc
 50
342.147874
 51
473.852126
  0
LINE
  5
555
100
AcDbEntity
  8
4
  6
SOLID
 62
     0
100
AcDbLine
 10
-2.686159
 20
-4.053861
 30
0.0
 11
-2.653514
 21
-3.898309
 31
0.0
  0
LINE
  5
556
100
AcDbEntity
  8
4
  6
SOLID
 62
     0
100
AcDbLine
 10
-3.025383
 20
-3.807401
 30
0.0
 11
-2.887531
 21
-3.728286
 31
0.0
  0
ARC
  5
557
100
AcDbEntity
  8
4
  6
SOLID
 62
     0
100
AcDbCircle
 10
-2.439531
 20
-4.105619
 30
0.0
 40
0.252
210
0.0
220
0.0
230
1.0
100
AcDbArc
 50
168.147875
 51
188.024097
  0
ARC
  5
558
100
AcDbEntity
  8
4
  6
SOLID
 62
     0
100
AcDbCircle
 10
-3.150819
 20
-3.588838
 30
0.0
 40
0.252
210
0.0
220
0.0
230
1.0
100
AcDbArc
 50
279.975903
 51
299.852125
  0
ARC
  5
559
100
AcDbEntity
  8
4
  6
SOLID
 62
     0
100
AcDbCircle
 10
-2.808635
 20
-3.865755
 30
0.0
 40
0.1585
210
0.0
220
0.0
230
1.0
100
AcDbArc
 50
348.147874
 51
479.852126
  0
LINE
  5
55A
100
AcDbEntity
  8
4
  6
SOLID
 62
     0
100
AcDbLine
 10
-2.2477
 20
-4.312434
 30
0.0
 11
-2.231494
 21
-4.154321
 31
0.0
  0
LINE
  5
55B
100
AcDbEntity
  8
4
  6
SOLID
 62
     0
100
AcDbLine
 10
-2.610827
 20
-4.102782
 30
0.0
 11
-2.482001
 21
-4.009691
 31
0.0
  0
ARC
  5
55C
100
AcDbEntity
  8
4
  6
SOLID
 62
     0
100
AcDbCircle
 10
-1.997013
 20
-4.338128
 30
0.0
 40
0.252
210
0.0
220
0.0
230
1.0
100
AcDbArc
 50
174.147875
 51
194.024097
  0
ARC
  5
55D
100
AcDbEntity
  8
4
  6
SOLID
 62
     0
100
AcDbCircle
 10
-2.758423
 20
-3.898528
 30
0.0
 40
0.252
210
0.0
220
0.0
230
1.0
100
AcDbArc
 50
285.975903
 51
305.852125
  0
ARC
  5
55E
100
AcDbEntity
  8
4
  6
SOLID
 62
     0
100
AcDbCircle
 10
-2.389168
 20
-4.13816
 30
0.0
 40
0.1585
210
0.0
220
0.0
230
1.0
100
AcDbArc
 50
354.147874
 51
485.852126
  0
LINE
  5
55F
100
AcDbEntity
  8
4
  6
SOLID
 62
     0
100
AcDbLine
 10
-1.784615
 20
-4.523758
 30
0.0
 11
-1.785025
 21
-4.364818
 31
0.0
  0
LINE
  5
560
100
AcDbEntity
  8
4
  6
SOLID
 62
     0
100
AcDbLine
 10
-2.167668
 20
-4.353212
 30
0.0
 11
-2.049277
 21
-4.247165
 31
0.0
  0
ARC
  5
561
100
AcDbEntity
  8
4
  6
SOLID
 62
     0
100
AcDbCircle
 10
-1.532615
 20
-4.523108
 30
0.0
 40
0.252
210
0.0
220
0.0
230
1.0
100
AcDbArc
 50
180.147875
 51
200.024097
  0
ARC
  5
562
100
AcDbEntity
  8
4
  6
SOLID
 62
     0
100
AcDbCircle
 10
-2.335805
 20
-4.165505
 30
0.0
 40
0.252
210
0.0
220
0.0
230
1.0
100
AcDbArc
 50
291.975903
 51
311.852125
  0
ARC
  5
563
100
AcDbEntity
  8
4
  6
SOLID
 62
     0
100
AcDbCircle
 10
-1.943524
 20
-4.365227
 30
0.0
 40
0.1585
210
0.0
220
0.0
230
1.0
100
AcDbArc
 50
0.147874
 51
131.852126
  0
LINE
  5
564
100
AcDbEntity
  8
4
  6
SOLID
 62
     0
100
AcDbLine
 10
-1.301977
 20
-4.68552
 30
0.0
 11
-1.318999
 21
-4.527493
 31
0.0
  0
LINE
  5
565
100
AcDbEntity
  8
4
  6
SOLID
 62
     0
100
AcDbLine
 10
-1.700758
 20
-4.555948
 30
0.0
 11
-1.594101
 21
-4.438106
 31
0.0
  0
ARC
  5
566
100
AcDbEntity
  8
4
  6
SOLID
 62
     0
100
AcDbCircle
 10
-1.051426
 20
-4.658532
 30
0.0
 40
0.252
210
0.0
220
0.0
230
1.0
100
AcDbArc
 50
186.147875
 51
206.024097
  0
ARC
  5
567
100
AcDbEntity
  8
4
  6
SOLID
 62
     0
100
AcDbCircle
 10
-1.887595
 20
-4.386844
 30
0.0
 40
0.252
210
0.0
220
0.0
230
1.0
100
AcDbArc
 50
297.975903
 51
317.852125
  0
ARC
  5
568
100
AcDbEntity
  8
4
  6
SOLID
 62
     0
100
AcDbCircle
 10
-1.476587
 20
-4.544467
 30
0.0
 40
0.1585
210
0.0
220
0.0
230
1.0
100
AcDbArc
 50
6.147874
 51
137.852126
  0
LINE
  5
569
100
AcDbEntity
  8
4
  6
SOLID
 62
     0
100
AcDbLine
 10
-0.805074
 20
-4.795946
 30
0.0
 11
-0.838521
 21
-4.640564
 31
0.0
  0
LINE
  5
56A
100
AcDbEntity
  8
4
  6
SOLID
 62
     0
100
AcDbLine
 10
-1.215215
 20
-4.708768
 30
0.0
 11
-1.12146
 21
-4.580423
 31
0.0
  0
ARC
  5
56B
100
AcDbEntity
  8
4
  6
SOLID
 62
     0
100
AcDbCircle
 10
-0.558717
 20
-4.742916
 30
0.0
 40
0.252
210
0.0
220
0.0
230
1.0
100
AcDbArc
 50
192.147875
 51
212.024097
  0
ARC
  5
56C
100
AcDbEntity
  8
4
  6
SOLID
 62
     0
100
AcDbCircle
 10
-1.418704
 20
-4.56012
 30
0.0
 40
0.252
210
0.0
220
0.0
230
1.0
100
AcDbArc
 50
303.975903
 51
323.852125
  0
ARC
  5
56D
100
AcDbEntity
  8
4
  6
SOLID
 62
     0
100
AcDbCircle
 10
-0.993472
 20
-4.673918
 30
0.0
 40
0.1585
210
0.0
220
0.0
230
1.0
100
AcDbArc
 50
12.147874
 51
143.852126
  0
LINE
  5
56E
100
AcDbEntity
  8
4
  6
SOLID
 62
     0
100
AcDbLine
 10
-0.299351
 20
-4.853826
 30
0.0
 11
-0.348857
 21
-4.702791
 31
0.0
  0
LINE
  5
56F
100
AcDbEntity
  8
4
  6
SOLID
 62
     0
100
AcDbLine
 10
-0.716358
 20
-4.809997
 30
0.0
 11
-0.636532
 21
-4.672555
 31
0.0
  0
ARC
  5
570
100
AcDbEntity
  8
4
  6
SOLID
 62
     0
100
AcDbCircle
 10
-0.059887
 20
-4.775336
 30
0.0
 40
0.252
210
0.0
220
0.0
230
1.0
100
AcDbArc
 50
198.147875
 51
218.024097
  0
ARC
  5
571
100
AcDbEntity
  8
4
  6
SOLID
 62
     0
100
AcDbCircle
 10
-0.93427
 20
-4.683434
 30
0.0
 40
0.252
210
0.0
220
0.0
230
1.0
100
AcDbArc
 50
309.975903
 51
329.852125
  0
ARC
  5
572
100
AcDbEntity
  8
4
  6
SOLID
 62
     0
100
AcDbCircle
 10
-0.499472
 20
-4.752159
 30
0.0
 40
0.1585
210
0.0
220
0.0
230
1.0
100
AcDbArc
 50
18.147874
 51
149.852126
  0
LINE
  5
573
100
AcDbEntity
  8
4
  6
SOLID
 62
     0
100
AcDbLine
 10
0.209652
 20
-4.858527
 30
0.0
 11
0.14463
 21
-4.713494
 31
0.0
  0
LINE
  5
574
100
AcDbEntity
  8
4
  6
SOLID
 62
     0
100
AcDbLine
 10
-0.209652
 20
-4.858527
 30
0.0
 11
-0.14463
 21
-4.713494
 31
0.0
  0
ARC
  5
575
100
AcDbEntity
  8
4
  6
SOLID
 62
     0
100
AcDbCircle
 10
0.4396
 20
-4.755436
 30
0.0
 40
0.252
210
0.0
220
0.0
230
1.0
100
AcDbArc
 50
204.147875
 51
224.024097
  0
ARC
  5
576
100
AcDbEntity
  8
4
  6
SOLID
 62
     0
100
AcDbCircle
 10
-0.4396
 20
-4.755436
 30
0.0
 40
0.252
210
0.0
220
0.0
230
1.0
100
AcDbArc
 50
315.975903
 51
335.852125
  0
ARC
  5
577
100
AcDbEntity
  8
4
  6
SOLID
 62
     0
100
AcDbCircle
 10
0.0
 20
-4.778336
 30
0.0
 40
0.1585
210
0.0
220
0.0
230
1.0
100
AcDbArc
 50
24.147874
 51
155.852126
  0
LINE
  5
578
100
AcDbEntity
  8
4
  6
SOLID
 62
     0
100
AcDbLine
 10
0.716358
 20
-4.809997
 30
0.0
 11
0.636532
 21
-4.672555
 31
0.0
  0
LINE
  5
579
100
AcDbEntity
  8
4
  6
SOLID
 62
     0
100
AcDbLine
 10
0.299351
 20
-4.853826
 30
0.0
 11
0.348857
 21
-4.702791
 31
0.0
  0
ARC
  5
57A
100
AcDbEntity
  8
4
  6
SOLID
 62
     0
100
AcDbCircle
 10
0.93427
 20
-4.683434
 30
0.0
 40
0.252
210
0.0
220
0.0
230
1.0
100
AcDbArc
 50
210.147875
 51
230.024097
  0
ARC
  5
57B
100
AcDbEntity
  8
4
  6
SOLID
 62
     0
100
AcDbCircle
 10
0.059887
 20
-4.775336
 30
0.0
 40
0.252
210
0.0
220
0.0
230
1.0
100
AcDbArc
 50
321.975903
 51
341.852125
  0
ARC
  5
57C
100
AcDbEntity
  8
4
  6
SOLID
 62
     0
100
AcDbCircle
 10
0.499472
 20
-4.752159
 30
0.0
 40
0.1585
210
0.0
220
0.0
230
1.0
100
AcDbArc
 50
30.147874
 51
161.852126
  0
LINE
  5
57D
100
AcDbEntity
  8
4
  6
SOLID
 62
     0
100
AcDbLine
 10
1.215215
 20
-4.708768
 30
0.0
 11
1.12146
 21
-4.580423
 31
0.0
  0
LINE
  5
57E
100
AcDbEntity
  8
4
  6
SOLID
 62
     0
100
AcDbLine
 10
0.805074
 20
-4.795946
 30
0.0
 11
0.838521
 21
-4.640564
 31
0.0
  0
ARC
  5
57F
100
AcDbEntity
  8
4
  6
SOLID
 62
     0
100
AcDbCircle
 10
1.418704
 20
-4.56012
 30
0.0
 40
0.252
210
0.0
220
0.0
230
1.0
100
AcDbArc
 50
216.147875
 51
236.024097
  0
ARC
  5
580
100
AcDbEntity
  8
4
  6
SOLID
 62
     0
100
AcDbCircle
 10
0.558717
 20
-4.742916
 30
0.0
 40
0.252
210
0.0
220
0.0
230
1.0
100
AcDbArc
 50
327.975903
 51
347.852125
  0
ARC
  5
581
100
AcDbEntity
  8
4
  6
SOLID
 62
     0
100
AcDbCircle
 10
0.993472
 20
-4.673918
 30
0.0
 40
0.1585
210
0.0
220
0.0
230
1.0
100
AcDbArc
 50
36.147874
 51
167.852126
  0
LINE
  5
582
100
AcDbEntity
  8
4
  6
SOLID
 62
     0
100
AcDbLine
 10
1.700758
 20
-4.555948
 30
0.0
 11
1.594101
 21
-4.438106
 31
0.0
  0
LINE
  5
583
100
AcDbEntity
  8
4
  6
SOLID
 62
     0
100
AcDbLine
 10
1.301977
 20
-4.68552
 30
0.0
 11
1.318998
 21
-4.527493
 31
0.0
  0
ARC
  5
584
100
AcDbEntity
  8
4
  6
SOLID
 62
     0
100
AcDbCircle
 10
1.887595
 20
-4.386844
 30
0.0
 40
0.252
210
0.0
220
0.0
230
1.0
100
AcDbArc
 50
222.147875
 51
242.024097
  0
ARC
  5
585
100
AcDbEntity
  8
4
  6
SOLID
 62
     0
100
AcDbCircle
 10
1.051426
 20
-4.658532
 30
0.0
 40
0.252
210
0.0
220
0.0
230
1.0
100
AcDbArc
 50
333.975903
 51
353.852125
  0
ARC
  5
586
100
AcDbEntity
  8
4
  6
SOLID
 62
     0
100
AcDbCircle
 10
1.476587
 20
-4.544467
 30
0.0
 40
0.1585
210
0.0
220
0.0
230
1.0
100
AcDbArc
 50
42.147874
 51
173.852126
  0
LINE
  5
587
100
AcDbEntity
  8
4
  6
SOLID
 62
     0
100
AcDbLine
 10
2.167668
 20
-4.353212
 30
0.0
 11
2.049277
 21
-4.247165
 31
0.0
  0
LINE
  5
588
100
AcDbEntity
  8
4
  6
SOLID
 62
     0
100
AcDbLine
 10
1.784615
 20
-4.523758
 30
0.0
 11
1.785025
 21
-4.364818
 31
0.0
  0
ARC
  5
589
100
AcDbEntity
  8
4
  6
SOLID
 62
     0
100
AcDbCircle
 10
2.335805
 20
-4.165505
 30
0.0
 40
0.252
210
0.0
220
0.0
230
1.0
100
AcDbArc
 50
228.147875
 51
248.024097
  0
ARC
  5
58A
100
AcDbEntity
  8
4
  6
SOLID
 62
     0
100
AcDbCircle
 10
1.532615
 20
-4.523108
 30
0.0
 40
0.252
210
0.0
220
0.0
230
1.0
100
AcDbArc
 50
339.975903
 51
359.852125
  0
ARC
  5
58B
100
AcDbEntity
  8
4
  6
SOLID
 62
     0
100
AcDbCircle
 10
1.943524
 20
-4.365227
 30
0.0
 40
0.1585
210
0.0
220
0.0
230
1.0
100
AcDbArc
 50
48.147874
 51
179.852126
  0
LINE
  5
58C
100
AcDbEntity
  8
4
  6
SOLID
 62
     0
100
AcDbLine
 10
2.610827
 20
-4.102782
 30
0.0
 11
2.482001
 21
-4.009691
 31
0.0
  0
LINE
  5
58D
100
AcDbEntity
  8
4
  6
SOLID
 62
     0
100
AcDbLine
 10
2.2477
 20
-4.312434
 30
0.0
 11
2.231494
 21
-4.154321
 31
0.0
  0
ARC
  5
58E
100
AcDbEntity
  8
4
  6
SOLID
 62
     0
100
AcDbCircle
 10
2.758423
 20
-3.898528
 30
0.0
 40
0.252
210
0.0
220
0.0
230
1.0
100
AcDbArc
 50
234.147875
 51
254.024097
  0
ARC
  5
58F
100
AcDbEntity
  8
4
  6
SOLID
 62
     0
100
AcDbCircle
 10
1.997013
 20
-4.338128
 30
0.0
 40
0.252
210
0.0
220
0.0
230
1.0
100
AcDbArc
 50
345.975903
 51
365.852125
  0
ARC
  5
590
100
AcDbEntity
  8
4
  6
SOLID
 62
     0
100
AcDbCircle
 10
2.389168
 20
-4.13816
 30
0.0
 40
0.1585
210
0.0
220
0.0
230
1.0
100
AcDbArc
 50
54.147874
 51
185.852126
  0
LINE
  5
591
100
AcDbEntity
  8
4
  6
SOLID
 62
     0
100
AcDbLine
 10
3.025383
 20
-3.807401
 30
0.0
 11
2.887531
 21
-3.728286
 31
0.0
  0
LINE
  5
592
100
AcDbEntity
  8
4
  6
SOLID
 62
     0
100
AcDbLine
 10
2.686159
 20
-4.053861
 30
0.0
 11
2.653514
 21
-3.898309
 31
0.0
  0
ARC
  5
593
100
AcDbEntity
  8
4
  6
SOLID
 62
     0
100
AcDbCircle
 10
3.150819
 20
-3.588838
 30
0.0
 40
0.252
210
0.0
220
0.0
230
1.0
100
AcDbArc
 50
240.147875
 51
260.024097
  0
ARC
  5
594
100
AcDbEntity
  8
4
  6
SOLID
 62
     0
100
AcDbCircle
 10
2.439531
 20
-4.105619
 30
0.0
 40
0.252
210
0.0
220
0.0
230
1.0
100
AcDbArc
 50
351.975903
 51
371.852125
  0
ARC
  5
595
100
AcDbEntity
  8
4
  6
SOLID
 62
     0
100
AcDbCircle
 10
2.808635
 20
-3.865755
 30
0.0
 40
0.1585
210
0.0
220
0.0
230
1.0
100
AcDbArc
 50
60.147874
 51
191.852126
  0
LINE
  5
596
100
AcDbEntity
  8
4
  6
SOLID
 62
     0
100
AcDbLine
 10
3.406791
 20
-3.470305
 30
0.0
 11
3.261424
 21
-3.406033
 31
0.0
  0
LINE
  5
597
100
AcDbEntity
  8
4
  6
SOLID
 62
     0
100
AcDbLine
 10
3.095188
 20
-3.750874
 30
0.0
 11
3.046462
 21
-3.599585
 31
0.0
  0
ARC
  5
598
100
AcDbEntity
  8
4
  6
SOLID
 62
     0
100
AcDbCircle
 10
3.508694
 20
-3.239828
 30
0.0
 40
0.252
210
0.0
220
0.0
230
1.0
100
AcDbArc
 50
246.147875
 51
266.024097
  0
ARC
  5
599
100
AcDbEntity
  8
4
  6
SOLID
 62
     0
100
AcDbCircle
 10
2.855321
 20
-3.828127
 30
0.0
 40
0.252
210
0.0
220
0.0
230
1.0
100
AcDbArc
 50
357.975903
 51
377.852125
  0
ARC
  5
59A
100
AcDbEntity
  8
4
  6
SOLID
 62
     0
100
AcDbCircle
 10
3.197331
 20
-3.550995
 30
0.0
 40
0.1585
210
0.0
220
0.0
230
1.0
100
AcDbArc
 50
66.147874
 51
197.852126
  0
LINE
  5
59B
100
AcDbEntity
  8
4
  6
SOLID
 62
     0
100
AcDbLine
 10
3.750874
 20
-3.095188
 30
0.0
 11
3.599585
 21
-3.046462
 31
0.0
  0
LINE
  5
59C
100
AcDbEntity
  8
4
  6
SOLID
 62
     0
100
AcDbLine
 10
3.470305
 20
-3.406791
 30
0.0
 11
3.406033
 21
-3.261425
 31
0.0
  0
ARC
  5
59D
100
AcDbEntity
  8
4
  6
SOLID
 62
     0
100
AcDbCircle
 10
3.828127
 20
-2.855321
 30
0.0
 40
0.252
210
0.0
220
0.0
230
1.0
100
AcDbArc
 50
252.147875
 51
272.024097
  0
ARC
  5
59E
100
AcDbEntity
  8
4
  6
SOLID
 62
     0
100
AcDbCircle
 10
3.239828
 20
-3.508694
 30
0.0
 40
0.252
210
0.0
220
0.0
230
1.0
100
AcDbArc
 50
3.975903
 51
23.852125
  0
ARC
  5
59F
100
AcDbEntity
  8
4
  6
SOLID
 62
     0
100
AcDbCircle
 10
3.550995
 20
-3.197331
 30
0.0
 40
0.1585
210
0.0
220
0.0
230
1.0
100
AcDbArc
 50
72.147874
 51
203.852126
  0
LINE
  5
5A0
100
AcDbEntity
  8
4
  6
SOLID
 62
     0
100
AcDbLine
 10
4.053861
 20
-2.686159
 30
0.0
 11
3.898309
 21
-2.653514
 31
0.0
  0
LINE
  5
5A1
100
AcDbEntity
  8
4
  6
SOLID
 62
     0
100
AcDbLine
 10
3.807401
 20
-3.025383
 30
0.0
 11
3.728286
 21
-2.887531
 31
0.0
  0
ARC
  5
5A2
100
AcDbEntity
  8
4
  6
SOLID
 62
     0
100
AcDbCircle
 10
4.105619
 20
-2.439531
 30
0.0
 40
0.252
210
0.0
220
0.0
230
1.0
100
AcDbArc
 50
258.147875
 51
278.024097
  0
ARC
  5
5A3
100
AcDbEntity
  8
4
  6
SOLID
 62
     0
100
AcDbCircle
 10
3.588838
 20
-3.150819
 30
0.0
 40
0.252
210
0.0
220
0.0
230
1.0
100
AcDbArc
 50
9.975903
 51
29.852125
  0
ARC
  5
5A4
100
AcDbEntity
  8
4
  6
SOLID
 62
     0
100
AcDbCircle
 10
3.865755
 20
-2.808635
 30
0.0
 40
0.1585
210
0.0
220
0.0
230
1.0
100
AcDbArc
 50
78.147874
 51
209.852126
  0
LINE
  5
5A5
100
AcDbEntity
  8
4
  6
SOLID
 62
     0
100
AcDbLine
 10
4.312434
 20
-2.2477
 30
0.0
 11
4.154321
 21
-2.231494
 31
0.0
  0
LINE
  5
5A6
100
AcDbEntity
  8
4
  6
SOLID
 62
     0
100
AcDbLine
 10
4.102782
 20
-2.610827
 30
0.0
 11
4.009691
 21
-2.482001
 31
0.0
  0
ARC
  5
5A7
100
AcDbEntity
  8
4
  6
SOLID
 62
     0
100
AcDbCircle
 10
4.338128
 20
-1.997013
 30
0.0
 40
0.252
210
0.0
220
0.0
230
1.0
100
AcDbArc
 50
264.147875
 51
284.024097
  0
ARC
  5
5A8
100
AcDbEntity
  8
4
  6
SOLID
 62
     0
100
AcDbCircle
 10
3.898528
 20
-2.758423
 30
0.0
 40
0.252
210
0.0
220
0.0
230
1.0
100
AcDbArc
 50
15.975903
 51
35.852125
  0
ARC
  5
5A9
100
AcDbEntity
  8
4
  6
SOLID
 62
     0
100
AcDbCircle
 10
4.13816
 20
-2.389168
 30
0.0
 40
0.1585
210
0.0
220
0.0
230
1.0
100
AcDbArc
 50
84.147874
 51
215.852126
  0
LINE
  5
5AA
100
AcDbEntity
  8
4
  6
SOLID
 62
     0
100
AcDbLine
 10
4.523758
 20
-1.784615
 30
0.0
 11
4.364818
 21
-1.785025
 31
0.0
  0
LINE
  5
5AB
100
AcDbEntity
  8
4
  6
SOLID
 62
     0
100
AcDbLine
 10
4.353212
 20
-2.167668
 30
0.0
 11
4.247165
 21
-2.049277
 31
0.0
  0
ARC
  5
5AC
100
AcDbEntity
  8
4
  6
SOLID
 62
     0
100
AcDbCircle
 10
4.523108
 20
-1.532615
 30
0.0
 40
0.252
210
0.0
220
0.0
230
1.0
100
AcDbArc
 50
270.147875
 51
290.024097
  0
ARC
  5
5AD
100
AcDbEntity
  8
4
  6
SOLID
 62
     0
100
AcDbCircle
 10
4.165505
 20
-2.335805
 30
0.0
 40
0.252
210
0.0
220
0.0
230
1.0
100
AcDbArc
 50
21.975903
 51
41.852125
  0
ARC
  5
5AE
100
AcDbEntity
  8
4
  6
SOLID
 62
     0
100
AcDbCircle
 10
4.365227
 20
-1.943524
 30
0.0
 40
0.1585
210
0.0
220
0.0
230
1.0
100
AcDbArc
 50
90.147874
 51
221.852126
  0
LINE
  5
5AF
100
AcDbEntity
  8
4
  6
SOLID
 62
     0
100
AcDbLine
 10
4.68552
 20
-1.301977
 30
0.0
 11
4.527493
 21
-1.318999
 31
0.0
  0
LINE
  5
5B0
100
AcDbEntity
  8
4
  6
SOLID
 62
     0
100
AcDbLine
 10
4.555948
 20
-1.700758
 30
0.0
 11
4.438106
 21
-1.594101
 31
0.0
  0
ARC
  5
5B1
100
AcDbEntity
  8
4
  6
SOLID
 62
     0
100
AcDbCircle
 10
4.658532
 20
-1.051426
 30
0.0
 40
0.252
210
0.0
220
0.0
230
1.0
100
AcDbArc
 50
276.147875
 51
296.024097
  0
ARC
  5
5B2
100
AcDbEntity
  8
4
  6
SOLID
 62
     0
100
AcDbCircle
 10
4.386844
 20
-1.887595
 30
0.0
 40
0.252
210
0.0
220
0.0
230
1.0
100
AcDbArc
 50
27.975903
 51
47.852125
  0
ARC
  5
5B3
100
AcDbEntity
  8
4
  6
SOLID
 62
     0
100
AcDbCircle
 10
4.544467
 20
-1.476587
 30
0.0
 40
0.1585
210
0.0
220
0.0
230
1.0
100
AcDbArc
 50
96.147874
 51
227.852126
  0
LINE
  5
5B4
100
AcDbEntity
  8
4
  6
SOLID
 62
     0
100
AcDbLine
 10
4.795946
 20
-0.805074
 30
0.0
 11
4.640564
 21
-0.838521
 31
0.0
  0
LINE
  5
5B5
100
AcDbEntity
  8
4
  6
SOLID
 62
     0
100
AcDbLine
 10
4.708768
 20
-1.215215
 30
0.0
 11
4.580423
 21
-1.12146
 31
0.0
  0
ARC
  5
5B6
100
AcDbEntity
  8
4
  6
SOLID
 62
     0
100
AcDbCircle
 10
4.742916
 20
-0.558717
 30
0.0
 40
0.252
210
0.0
220
0.0
230
1.0
100
AcDbArc
 50
282.147875
 51
302.024097
  0
ARC
  5
5B7
100
AcDbEntity
  8
4
  6
SOLID
 62
     0
100
AcDbCircle
 10
4.56012
 20
-1.418704
 30
0.0
 40
0.252
210
0.0
220
0.0
230
1.0
100
AcDbArc
 50
33.975903
 51
53.852125
  0
ARC
  5
5B8
100
AcDbEntity
  8
4
  6
SOLID
 62
     0
100
AcDbCircle
 10
4.673918
 20
-0.993472
 30
0.0
 40
0.1585
210
0.0
220
0.0
230
1.0
100
AcDbArc
 50
102.147874
 51
233.852126
  0
LINE
  5
5B9
100
AcDbEntity
  8
4
  6
SOLID
 62
     0
100
AcDbLine
 10
4.853826
 20
-0.299351
 30
0.0
 11
4.702791
 21
-0.348857
 31
0.0
  0
LINE
  5
5BA
100
AcDbEntity
  8
4
  6
SOLID
 62
     0
100
AcDbLine
 10
4.809997
 20
-0.716358
 30
0.0
 11
4.672555
 21
-0.636532
 31
0.0
  0
ARC
  5
5BB
100
AcDbEntity
  8
4
  6
SOLID
 62
     0
100
AcDbCircle
 10
4.775336
 20
-0.059887
 30
0.0
 40
0.252
210
0.0
220
0.0
230
1.0
100
AcDbArc
 50
288.147875
 51
308.024097
  0
ARC
  5
5BC
100
AcDbEntity
  8
4
  6
SOLID
 62
     0
100
AcDbCircle
 10
4.683434
 20
-0.93427
 30
0.0
 40
0.252
210
0.0
220
0.0
230
1.0
100
AcDbArc
 50
39.975903
 51
59.852125
  0
ARC
  5
5BD
100
AcDbEntity
  8
4
  6
SOLID
 62
     0
100
AcDbCircle
 10
4.752159
 20
-0.499472
 30
0.0
 40
0.1585
210
0.0
220
0.0
230
1.0
100
AcDbArc
 50
108.147874
 51
239.852126
  0
LINE
  5
5BE
100
AcDbEntity
  8
4
  6
SOLID
 62
     0
100
AcDbLine
 10
4.858527
 20
0.209652
 30
0.0
 11
4.713494
 21
0.14463
 31
0.0
  0
LINE
  5
5BF
100
AcDbEntity
  8
4
  6
SOLID
 62
     0
100
AcDbLine
 10
4.858527
 20
-0.209652
 30
0.0
 11
4.713494
 21
-0.14463
 31
0.0
  0
ARC
  5
5C0
100
AcDbEntity
  8
4
  6
SOLID
 62
     0
100
AcDbCircle
 10
4.755436
 20
0.4396
 30
0.0
 40
0.252
210
0.0
220
0.0
230
1.0
100
AcDbArc
 50
294.147875
 51
314.024097
  0
ARC
  5
5C1
100
AcDbEntity
  8
4
  6
SOLID
 62
     0
100
AcDbCircle
 10
4.755436
 20
-0.4396
 30
0.0
 40
0.252
210
0.0
220
0.0
230
1.0
100
AcDbArc
 50
45.975903
 51
65.852125
  0
ARC
  5
5C2
100
AcDbEntity
  8
4
  6
SOLID
 62
     0
100
AcDbCircle
 10
4.778336
 20
0.0
 30
0.0
 40
0.1585
210
0.0
220
0.0
230
1.0
100
AcDbArc
 50
114.147874
 51
245.852126
  0
LINE
  5
5C3
100
AcDbEntity
  8
4
  6
SOLID
 62
     0
100
AcDbLine
 10
4.809997
 20
0.716358
 30
0.0
 11
4.672555
 21
0.636532
 31
0.0
  0
LINE
  5
5C4
100
AcDbEntity
  8
4
  6
SOLID
 62
     0
100
AcDbLine
 10
4.853826
 20
0.299351
 30
0.0
 11
4.702791
 21
0.348857
 31
0.0
  0
ARC
  5
5C5
100
AcDbEntity
  8
4
  6
SOLID
 62
     0
100
AcDbCircle
 10
4.683434
 20
0.93427
 30
0.0
 40
0.252
210
0.0
220
0.0
230
1.0
100
AcDbArc
 50
300.147875
 51
320.024097
  0
ARC
  5
5C6
100
AcDbEntity
  8
4
  6
SOLID
 62
     0
100
AcDbCircle
 10
4.775336
 20
0.059887
 30
0.0
 40
0.252
210
0.0
220
0.0
230
1.0
100
AcDbArc
 50
51.975903
 51
71.852125
  0
ARC
  5
5C7
100
AcDbEntity
  8
4
  6
SOLID
 62
     0
100
AcDbCircle
 10
4.752159
 20
0.499472
 30
0.0
 40
0.1585
210
0.0
220
0.0
230
1.0
100
AcDbArc
 50
120.147874
 51
251.852126
  0
LINE
  5
5C8
100
AcDbEntity
  8
4
  6
SOLID
 62
     0
100
AcDbLine
 10
4.708768
 20
1.215215
 30
0.0
 11
4.580423
 21
1.12146
 31
0.0
  0
LINE
  5
5C9
100
AcDbEntity
  8
4
  6
SOLID
 62
     0
100
AcDbLine
 10
4.795946
 20
0.805074
 30
0.0
 11
4.640564
 21
0.838521
 31
0.0
  0
ARC
  5
5CA
100
AcDbEntity
  8
4
  6
SOLID
 62
     0
100
AcDbCircle
 10
4.56012
 20
1.418704
 30
0.0
 40
0.252
210
0.0
220
0.0
230
1.0
100
AcDbArc
 50
306.147875
 51
326.024097
  0
ARC
  5
5CB
100
AcDbEntity
  8
4
  6
SOLID
 62
     0
100
AcDbCircle
 10
4.742916
 20
0.558717
 30
0.0
 40
0.252
210
0.0
220
0.0
230
1.0
100
AcDbArc
 50
57.975903
 51
77.852125
  0
ARC
  5
5CC
100
AcDbEntity
  8
4
  6
SOLID
 62
     0
100
AcDbCircle
 10
4.673918
 20
0.993472
 30
0.0
 40
0.1585
210
0.0
220
0.0
230
1.0
100
AcDbArc
 50
126.147874
 51
257.852126
  0
LINE
  5
5CD
100
AcDbEntity
  8
4
  6
SOLID
 62
     0
100
AcDbLine
 10
4.555948
 20
1.700758
 30
0.0
 11
4.438106
 21
1.594101
 31
0.0
  0
LINE
  5
5CE
100
AcDbEntity
  8
4
  6
SOLID
 62
     0
100
AcDbLine
 10
4.68552
 20
1.301977
 30
0.0
 11
4.527493
 21
1.318998
 31
0.0
  0
ARC
  5
5CF
100
AcDbEntity
  8
4
  6
SOLID
 62
     0
100
AcDbCircle
 10
4.386844
 20
1.887595
 30
0.0
 40
0.252
210
0.0
220
0.0
230
1.0
100
AcDbArc
 50
312.147875
 51
332.024097
  0
ARC
  5
5D0
100
AcDbEntity
  8
4
  6
SOLID
 62
     0
100
AcDbCircle
 10
4.658532
 20
1.051426
 30
0.0
 40
0.252
210
0.0
220
0.0
230
1.0
100
AcDbArc
 50
63.975903
 51
83.852125
  0
ARC
  5
5D1
100
AcDbEntity
  8
4
  6
SOLID
 62
     0
100
AcDbCircle
 10
4.544467
 20
1.476587
 30
0.0
 40
0.1585
210
0.0
220
0.0
230
1.0
100
AcDbArc
 50
132.147874
 51
263.852126
  0
LINE
  5
5D2
100
AcDbEntity
  8
4
  6
SOLID
 62
     0
100
AcDbLine
 10
4.353212
 20
2.167668
 30
0.0
 11
4.247165
 21
2.049277
 31
0.0
  0
LINE
  5
5D3
100
AcDbEntity
  8
4
  6
SOLID
 62
     0
100
AcDbLine
 10
4.523758
 20
1.784615
 30
0.0
 11
4.364818
 21
1.785025
 31
0.0
  0
ARC
  5
5D4
100
AcDbEntity
  8
4
  6
SOLID
 62
     0
100
AcDbCircle
 10
4.165505
 20
2.335805
 30
0.0
 40
0.252
210
0.0
220
0.0
230
1.0
100
AcDbArc
 50
318.147875
 51
338.024097
  0
ARC
  5
5D5
100
AcDbEntity
  8
4
  6
SOLID
 62
     0
100
AcDbCircle
 10
4.523108
 20
1.532615
 30
0.0
 40
0.252
210
0.0
220
0.0
230
1.0
100
AcDbArc
 50
69.975903
 51
89.852125
  0
ARC
  5
5D6
100
AcDbEntity
  8
4
  6
SOLID
 62
     0
100
AcDbCircle
 10
4.365227
 20
1.943524
 30
0.0
 40
0.1585
210
0.0
220
0.0
230
1.0
100
AcDbArc
 50
138.147874
 51
269.852126
  0
LINE
  5
5D7
100
AcDbEntity
  8
4
  6
SOLID
 62
     0
100
AcDbLine
 10
4.102782
 20
2.610827
 30
0.0
 11
4.009691
 21
2.482001
 31
0.0
  0
LINE
  5
5D8
100
AcDbEntity
  8
4
  6
SOLID
 62
     0
100
AcDbLine
 10
4.312434
 20
2.2477
 30
0.0
 11
4.154321
 21
2.231494
 31
0.0
  0
ARC
  5
5D9
100
AcDbEntity
  8
4
  6
SOLID
 62
     0
100
AcDbCircle
 10
3.898528
 20
2.758423
 30
0.0
 40
0.252
210
0.0
220
0.0
230
1.0
100
AcDbArc
 50
324.147875
 51
344.024097
  0
ARC
  5
5DA
100
AcDbEntity
  8
4
  6
SOLID
 62
     0
100
AcDbCircle
 10
4.338128
 20
1.997013
 30
0.0
 40
0.252
210
0.0
220
0.0
230
1.0
100
AcDbArc
 50
75.975903
 51
95.852125
  0
ARC
  5
5DB
100
AcDbEntity
  8
4
  6
SOLID
 62
     0
100
AcDbCircle
 10
4.13816
 20
2.389168
 30
0.0
 40
0.1585
210
0.0
220
0.0
230
1.0
100
AcDbArc
 50
144.147874
 51
275.852126
  0
LINE
  5
5DC
100
AcDbEntity
  8
4
  6
SOLID
 62
     0
100
AcDbLine
 10
3.807401
 20
3.025383
 30
0.0
 11
3.728286
 21
2.887531
 31
0.0
  0
LINE
  5
5DD
100
AcDbEntity
  8
4
  6
SOLID
 62
     0
100
AcDbLine
 10
4.053861
 20
2.686159
 30
0.0
 11
3.898309
 21
2.653514
 31
0.0
  0
ARC
  5
5DE
100
AcDbEntity
  8
4
  6
SOLID
 62
     0
100
AcDbCircle
 10
3.588838
 20
3.150819
 30
0.0
 40
0.252
210
0.0
220
0.0
230
1.0
100
AcDbArc
 50
330.147875
 51
350.024097
  0
ARC
  5
5DF
100
AcDbEntity
  8
4
  6
SOLID
 62
     0
100
AcDbCircle
 10
4.105619
 20
2.439531
 30
0.0
 40
0.252
210
0.0
220
0.0
230
1.0
100
AcDbArc
 50
81.975903
 51
101.852125
  0
ARC
  5
5E0
100
AcDbEntity
  8
4
  6
SOLID
 62
     0
100
AcDbCircle
 10
3.865755
 20
2.808635
 30
0.0
 40
0.1585
210
0.0
220
0.0
230
1.0
100
AcDbArc
 50
150.147874
 51
281.852126
  0
LINE
  5
5E1
100
AcDbEntity
  8
4
  6
SOLID
 62
     0
100
AcDbLine
 10
3.470305
 20
3.406791
 30
0.0
 11
3.406033
 21
3.261424
 31
0.0
  0
LINE
  5
5E2
100
AcDbEntity
  8
4
  6
SOLID
 62
     0
100
AcDbLine
 10
3.750874
 20
3.095188
 30
0.0
 11
3.599585
 21
3.046462
 31
0.0
  0
ARC
  5
5E3
100
AcDbEntity
  8
4
  6
SOLID
 62
     0
100
AcDbCircle
 10
3.239828
 20
3.508694
 30
0.0
 40
0.252
210
0.0
220
0.0
230
1.0
100
AcDbArc
 50
336.147875
 51
356.024097
  0
ARC
  5
5E4
100
AcDbEntity
  8
4
  6
SOLID
 62
     0
100
AcDbCircle
 10
3.828127
 20
2.855321
 30
0.0
 40
0.252
210
0.0
220
0.0
230
1.0
100
AcDbArc
 50
87.975903
 51
107.852125
  0
ARC
  5
5E5
100
AcDbEntity
  8
4
  6
SOLID
 62
     0
100
AcDbCircle
 10
3.550995
 20
3.197331
 30
0.0
 40
0.1585
210
0.0
220
0.0
230
1.0
100
AcDbArc
 50
156.147874
 51
287.852126
  0
LINE
  5
5E6
100
AcDbEntity
  8
4
  6
SOLID
 62
     0
100
AcDbLine
 10
3.095188
 20
3.750874
 30
0.0
 11
3.046462
 21
3.599585
 31
0.0
  0
LINE
  5
5E7
100
AcDbEntity
  8
4
  6
SOLID
 62
     0
100
AcDbLine
 10
3.406791
 20
3.470305
 30
0.0
 11
3.261425
 21
3.406033
 31
0.0
  0
ARC
  5
5E8
100
AcDbEntity
  8
4
  6
SOLID
 62
     0
100
AcDbCircle
 10
2.855321
 20
3.828127
 30
0.0
 40
0.252
210
0.0
220
0.0
230
1.0
100
AcDbArc
 50
342.147875
 51
362.024097
  0
ARC
  5
5E9
100
AcDbEntity
  8
4
  6
SOLID
 62
     0
100
AcDbCircle
 10
3.508694
 20
3.239828
 30
0.0
 40
0.252
210
0.0
220
0.0
230
1.0
100
AcDbArc
 50
93.975903
 51
113.852125
  0
ARC
  5
5EA
100
AcDbEntity
  8
4
  6
SOLID
 62
     0
100
AcDbCircle
 10
3.197331
 20
3.550995
 30
0.0
 40
0.1585
210
0.0
220
0.0
230
1.0
100
AcDbArc
 50
162.147874
 51
293.852126
  0
LINE
  5
5EB
100
AcDbEntity
  8
4
  6
SOLID
 62
     0
100
AcDbLine
 10
2.686159
 20
4.053861
 30
0.0
 11
2.653514
 21
3.898309
 31
0.0
  0
LINE
  5
5EC
100
AcDbEntity
  8
4
  6
SOLID
 62
     0
100
AcDbLine
 10
3.025383
 20
3.807401
 30
0.0
 11
2.887531
 21
3.728286
 31
0.0
  0
ARC
  5
5ED
100
AcDbEntity
  8
4
  6
SOLID
 62
     0
100
AcDbCircle
 10
2.439531
 20
4.105619
 30
0.0
 40
0.252
210
0.0
220
0.0
230
1.0
100
AcDbArc
 50
348.147875
 51
368.024097
  0
ARC
  5
5EE
100
AcDbEntity
  8
4
  6
SOLID
 62
     0
100
AcDbCircle
 10
3.150819
 20
3.588838
 30
0.0
 40
0.252
210
0.0
220
0.0
230
1.0
100
AcDbArc
 50
99.975903
 51
119.852125
  0
ARC
  5
5EF
100
AcDbEntity
  8
4
  6
SOLID
 62
     0
100
AcDbCircle
 10
2.808635
 20
3.865755
 30
0.0
 40
0.1585
210
0.0
220
0.0
230
1.0
100
AcDbArc
 50
168.147874
 51
299.852126
  0
LINE
  5
5F0
100
AcDbEntity
  8
4
  6
SOLID
 62
     0
100
AcDbLine
 10
2.2477
 20
4.312434
 30
0.0
 11
2.231494
 21
4.154321
 31
0.0
  0
LINE
  5
5F1
100
AcDbEntity
  8
4
  6
SOLID
 62
     0
100
AcDbLine
 10
2.610827
 20
4.102782
 30
0.0
 11
2.482001
 21
4.009691
 31
0.0
  0
ARC
  5
5F2
100
AcDbEntity
  8
4
  6
SOLID
 62
     0
100
AcDbCircle
 10
1.997013
 20
4.338128
 30
0.0
 40
0.252
210
0.0
220
0.0
230
1.0
100
AcDbArc
 50
354.147875
 51
374.024097
  0
ARC
  5
5F3
100
AcDbEntity
  8
4
  6
SOLID
 62
     0
100
AcDbCircle
 10
2.758423
 20
3.898528
 30
0.0
 40
0.252
210
0.0
220
0.0
230
1.0
100
AcDbArc
 50
105.975903
 51
125.852125
  0
ARC
  5
5F4
100
AcDbEntity
  8
4
  6
SOLID
 62
     0
100
AcDbCircle
 10
2.389168
 20
4.13816
 30
0.0
 40
0.1585
210
0.0
220
0.0
230
1.0
100
AcDbArc
 50
174.147874
 51
305.852126
  0
LINE
  5
5F5
100
AcDbEntity
  8
4
  6
SOLID
 62
     0
100
AcDbLine
 10
1.784615
 20
4.523758
 30
0.0
 11
1.785025
 21
4.364818
 31
0.0
  0
LINE
  5
5F6
100
AcDbEntity
  8
4
  6
SOLID
 62
     0
100
AcDbLine
 10
2.167668
 20
4.353212
 30
0.0
 11
2.049277
 21
4.247165
 31
0.0
  0
ARC
  5
5F7
100
AcDbEntity
  8
4
  6
SOLID
 62
     0
100
AcDbCircle
 10
1.532615
 20
4.523108
 30
0.0
 40
0.252
210
0.0
220
0.0
230
1.0
100
AcDbArc
 50
0.147875
 51
20.024097
  0
ARC
  5
5F8
100
AcDbEntity
  8
4
  6
SOLID
 62
     0
100
AcDbCircle
 10
2.335805
 20
4.165505
 30
0.0
 40
0.252
210
0.0
220
0.0
230
1.0
100
AcDbArc
 50
111.975903
 51
131.852125
  0
ARC
  5
5F9
100
AcDbEntity
  8
4
  6
SOLID
 62
     0
100
AcDbCircle
 10
1.943524
 20
4.365227
 30
0.0
 40
0.1585
210
0.0
220
0.0
230
1.0
100
AcDbArc
 50
180.147874
 51
311.852126
  0
LINE
  5
5FA
100
AcDbEntity
  8
4
  6
SOLID
 62
     0
100
AcDbLine
 10
1.301977
 20
4.68552
 30
0.0
 11
1.318999
 21
4.527493
 31
0.0
  0
LINE
  5
5FB
100
AcDbEntity
  8
4
  6
SOLID
 62
     0
100
AcDbLine
 10
1.700758
 20
4.555948
 30
0.0
 11
1.594101
 21
4.438106
 31
0.0
  0
ARC
  5
5FC
100
AcDbEntity
  8
4
  6
SOLID
 62
     0
100
AcDbCircle
 10
1.051426
 20
4.658532
 30
0.0
 40
0.252
210
0.0
220
0.0
230
1.0
100
AcDbArc
 50
6.147875
 51
26.024097
  0
ARC
  5
5FD
100
AcDbEntity
  8
4
  6
SOLID
 62
     0
100
AcDbCircle
 10
1.887595
 20
4.386844
 30
0.0
 40
0.252
210
0.0
220
0.0
230
1.0
100
AcDbArc
 50
117.975903
 51
137.852125
  0
ARC
  5
5FE
100
AcDbEntity
  8
4
  6
SOLID
 62
     0
100
AcDbCircle
 10
1.476587
 20
4.544467
 30
0.0
 40
0.1585
210
0.0
220
0.0
230
1.0
100
AcDbArc
 50
186.147874
 51
317.852126
  0
LINE
  5
5FF
100
AcDbEntity
  8
4
  6
SOLID
 62
     0
100
AcDbLine
 10
0.805074
 20
4.795946
 30
0.0
 11
0.838521
 21
4.640564
 31
0.0
  0
LINE
  5
600
100
AcDbEntity
  8
4
  6
SOLID
 62
     0
100
AcDbLine
 10
1.215215
 20
4.708768
 30
0.0
 11
1.12146
 21
4.580423
 31
0.0
  0
ARC
  5
601
100
AcDbEntity
  8
4
  6
SOLID
 62
     0
100
AcDbCircle
 10
0.558717
 20
4.742916
 30
0.0
 40
0.252
210
0.0
220
0.0
230
1.0
100
AcDbArc
 50
12.147875
 51
32.024097
  0
ARC
  5
602
100
AcDbEntity
  8
4
  6
SOLID
 62
     0
100
AcDbCircle
 10
1.418704
 20
4.56012
 30
0.0
 40
0.252
210
0.0
220
0.0
230
1.0
100
AcDbArc
 50
123.975903
 51
143.852125
  0
ARC
  5
603
100
AcDbEntity
  8
4
  6
SOLID
 62
     0
100
AcDbCircle
 10
0.993472
 20
4.673918
 30
0.0
 40
0.1585
210
0.0
220
0.0
230
1.0
100
AcDbArc
 50
192.147874
 51
323.852126
  0
LINE
  5
604
100
AcDbEntity
  8
4
  6
SOLID
 62
     0
100
AcDbLine
 10
0.299351
 20
4.853826
 30
0.0
 11
0.348857
 21
4.702791
 31
0.0
  0
LINE
  5
605
100
AcDbEntity
  8
4
  6
SOLID
 62
     0
100
AcDbLine
 10
0.716358
 20
4.809997
 30
0.0
 11
0.636532
 21
4.672555
 31
0.0
  0
ARC
  5
606
100
AcDbEntity
  8
4
  6
SOLID
 62
     0
100
AcDbCircle
 10
0.059887
 20
4.775336
 30
0.0
 40
0.252
210
0.0
220
0.0
230
1.0
100
AcDbArc
 50
18.147875
 51
38.024097
  0
ARC
  5
607
100
AcDbEntity
  8
4
  6
SOLID
 62
     0
100
AcDbCircle
 10
0.93427
 20
4.683434
 30
0.0
 40
0.252
210
0.0
220
0.0
230
1.0
100
AcDbArc
 50
129.975903
 51
149.852125
  0
ARC
  5
608
100
AcDbEntity
  8
4
  6
SOLID
 62
     0
100
AcDbCircle
 10
0.499472
 20
4.752159
 30
0.0
 40
0.1585
210
0.0
220
0.0
230
1.0
100
AcDbArc
 50
198.147874
 51
329.852126
  0
LINE
  5
60A
100
AcDbEntity
  8
3
  6
SOLID
 62
     0
100
AcDbLine
 10
-0.140201
 20
3.61377
 30
0.0
 11
-0.140201
 21
4.02627
 31
0.0
  0
LINE
  5
60B
100
AcDbEntity
  8
3
  6
SOLID
 62
     0
100
AcDbLine
 10
-0.140201
 20
3.61377
 30
0.0
 11
-0.270465
 21
3.61377
 31
0.0
  0
LINE
  5
60C
100
AcDbEntity
  8
3
  6
SOLID
 62
     0
100
AcDbLine
 10
-0.270465
 20
3.917718
 30
0.0
 11
-0.29544
 21
3.917718
 31
0.0
  0
LINE
  5
60D
100
AcDbEntity
  8
3
  6
SOLID
 62
     0
100
AcDbLine
 10
-0.140201
 20
4.02627
 30
0.0
 11
-0.335596
 21
4.02627
 31
0.0
  0
LINE
  5
60E
100
AcDbEntity
  8
3
  6
SOLID
 62
     0
100
AcDbLine
 10
-0.270465
 20
3.61377
 30
0.0
 11
-0.270465
 21
3.917718
 31
0.0
  0
LINE
  5
60F
100
AcDbEntity
  8
3
  6
SOLID
 62
     0
100
AcDbLine
 10
-0.335596
 20
4.02627
 30
0.0
 11
-0.48757
 21
3.896007
 31
0.0
  0
LINE
  5
610
100
AcDbEntity
  8
3
  6
SOLID
 62
     0
100
AcDbLine
 10
-0.29544
 20
3.917718
 30
0.0
 11
-0.416925
 21
3.813588
 31
0.0
  0
LINE
  5
611
100
AcDbEntity
  8
3
  6
SOLID
 62
     0
100
AcDbLine
 10
-0.416925
 20
3.813588
 30
0.0
 11
-0.48757
 21
3.896007
 31
0.0
  0
LINE
  5
612
100
AcDbEntity
  8
3
  6
SOLID
 62
     0
100
AcDbLine
 10
0.441627
 20
3.61377
 30
0.0
 11
0.441627
 21
3.700612
 31
0.0
  0
LINE
  5
613
100
AcDbEntity
  8
3
  6
SOLID
 62
     0
100
AcDbLine
 10
-0.057715
 20
3.61377
 30
0.0
 11
-0.057715
 21
3.753125
 31
0.0
  0
LINE
  5
614
100
AcDbEntity
  8
3
  6
SOLID
 62
     0
100
AcDbLine
 10
0.441627
 20
3.61377
 30
0.0
 11
-0.057715
 21
3.61377
 31
0.0
  0
LINE
  5
615
100
AcDbEntity
  8
3
  6
SOLID
 62
     0
100
AcDbLine
 10
-0.057715
 20
3.885152
 30
0.0
 11
-0.057715
 21
3.917718
 31
0.0
  0
LINE
  5
616
100
AcDbEntity
  8
3
  6
SOLID
 62
     0
100
AcDbLine
 10
0.322219
 20
3.90636
 30
0.0
 11
0.322219
 21
3.906862
 31
0.0
  0
LINE
  5
617
100
AcDbEntity
  8
3
  6
SOLID
 62
     0
100
AcDbLine
 10
0.061692
 20
3.885152
 30
0.0
 11
0.061692
 21
3.906862
 31
0.0
  0
LINE
  5
618
100
AcDbEntity
  8
3
  6
SOLID
 62
     0
100
AcDbLine
 10
0.441627
 20
3.700612
 30
0.0
 11
0.061693
 21
3.700612
 31
0.0
  0
LINE
  5
619
100
AcDbEntity
  8
3
  6
SOLID
 62
     0
100
AcDbLine
 10
0.291279
 20
3.873835
 30
0.0
 11
0.045416
 21
3.861542
 31
0.0
  0
LINE
  5
61A
100
AcDbEntity
  8
3
  6
SOLID
 62
     0
100
AcDbLine
 10
0.338495
 20
3.778499
 30
0.0
 11
0.092632
 21
3.766205
 31
0.0
  0
LINE
  5
61B
100
AcDbEntity
  8
3
  6
SOLID
 62
     0
100
AcDbLine
 10
0.061692
 20
3.885152
 30
0.0
 11
-0.057715
 21
3.885152
 31
0.0
  0
ARC
  5
61C
100
AcDbEntity
  8
3
  6
SOLID
 62
     0
100
AcDbCircle
 10
0.094258
 20
3.73368
 30
0.0
 40
0.032566
210
0.0
220
0.0
230
1.0
100
AcDbArc
 50
92.862405
 51
180.000005
  0
ARC
  5
61D
100
AcDbEntity
  8
3
  6
SOLID
 62
     0
100
AcDbCircle
 10
0.289653
 20
3.90636
 30
0.0
 40
0.032566
210
0.0
220
0.0
230
1.0
100
AcDbArc
 50
272.862396
 51
360.000003
  0
ARC
  5
61E
100
AcDbEntity
  8
3
  6
SOLID
 62
     0
100
AcDbCircle
 10
0.289653
 20
3.906862
 30
0.0
 40
0.032566
210
0.0
220
0.0
230
1.0
100
AcDbArc
 50
0.0
 51
90.000003
  0
ARC
  5
61F
100
AcDbEntity
  8
3
  6
SOLID
 62
     0
100
AcDbCircle
 10
0.094258
 20
3.906862
 30
0.0
 40
0.032566
210
0.0
220
0.0
230
1.0
100
AcDbArc
 50
90.000003
 51
180.000005
  0
ARC
  5
620
100
AcDbEntity
  8
3
  6
SOLID
 62
     0
100
AcDbCircle
 10
0.050837
 20
3.917718
 30
0.0
 40
0.108553
210
0.0
220
0.0
230
1.0
100
AcDbArc
 50
90.000002
 51
180.000005
  0
ARC
  5
621
100
AcDbEntity
  8
3
  6
SOLID
 62
     0
100
AcDbCircle
 10
0.333074
 20
3.917718
 30
0.0
 40
0.108553
210
0.0
220
0.0
230
1.0
100
AcDbArc
 50
0.0
 51
90.000002
  0
ARC
  5
622
100
AcDbEntity
  8
3
  6
SOLID
 62
     0
100
AcDbCircle
 10
0.333074
 20
3.886916
 30
0.0
 40
0.108553
210
0.0
220
0.0
230
1.0
100
AcDbArc
 50
272.862396
 51
359.999996
  0
ARC
  5
623
100
AcDbEntity
  8
3
  6
SOLID
 62
     0
100
AcDbCircle
 10
0.050837
 20
3.753125
 30
0.0
 40
0.108553
210
0.0
220
0.0
230
1.0
100
AcDbArc
 50
92.862398
 51
180.000005
  0
LINE
  5
624
100
AcDbEntity
  8
3
  6
SOLID
 62
     0
100
AcDbLine
 10
0.061693
 20
3.73368
 30
0.0
 11
0.061693
 21
3.700612
 31
0.0
  0
LINE
  5
625
100
AcDbEntity
  8
3
  6
SOLID
 62
     0
100
AcDbLine
 10
0.441627
 20
3.917718
 30
0.0
 11
0.441627
 21
3.886916
 31
0.0
  0
LINE
  5
626
100
AcDbEntity
  8
3
  6
SOLID
 62
     0
100
AcDbLine
 10
0.050837
 20
4.02627
 30
0.0
 11
0.333074
 21
4.02627
 31
0.0
  0
LINE
  5
627
100
AcDbEntity
  8
3
  6
SOLID
 62
     0
100
AcDbLine
 10
0.094258
 20
3.939428
 30
0.0
 11
0.289653
 21
3.939428
 31
0.0
  0
LINE
  5
628
100
AcDbEntity
  8
3
  6
SOLID
 62
     0
100
AcDbLine
 10
2.009341
 20
3.107688
 30
0.0
 11
2.009341
 21
3.520188
 31
0.0
  0
LINE
  5
629
100
AcDbEntity
  8
3
  6
SOLID
 62
     0
100
AcDbLine
 10
1.879078
 20
3.411635
 30
0.0
 11
1.854103
 21
3.411635
 31
0.0
  0
LINE
  5
62A
100
AcDbEntity
  8
3
  6
SOLID
 62
     0
100
AcDbLine
 10
2.009341
 20
3.520188
 30
0.0
 11
1.813947
 21
3.520188
 31
0.0
  0
LINE
  5
62B
100
AcDbEntity
  8
3
  6
SOLID
 62
     0
100
AcDbLine
 10
1.879078
 20
3.107688
 30
0.0
 11
1.879078
 21
3.411635
 31
0.0
  0
LINE
  5
62C
100
AcDbEntity
  8
3
  6
SOLID
 62
     0
100
AcDbLine
 10
1.813947
 20
3.520188
 30
0.0
 11
1.661973
 21
3.389924
 31
0.0
  0
LINE
  5
62D
100
AcDbEntity
  8
3
  6
SOLID
 62
     0
100
AcDbLine
 10
1.854103
 20
3.411635
 30
0.0
 11
1.732618
 21
3.307505
 31
0.0
  0
LINE
  5
62E
100
AcDbEntity
  8
3
  6
SOLID
 62
     0
100
AcDbLine
 10
1.732618
 20
3.307505
 30
0.0
 11
1.661973
 21
3.389924
 31
0.0
  0
LINE
  5
62F
100
AcDbEntity
  8
3
  6
SOLID
 62
     0
100
AcDbLine
 10
3.540138
 20
1.711757
 30
0.0
 11
3.540138
 21
1.798599
 31
0.0
  0
LINE
  5
630
100
AcDbEntity
  8
3
  6
SOLID
 62
     0
100
AcDbLine
 10
3.040796
 20
1.711757
 30
0.0
 11
3.040796
 21
1.851111
 31
0.0
  0
LINE
  5
631
100
AcDbEntity
  8
3
  6
SOLID
 62
     0
100
AcDbLine
 10
3.540138
 20
1.711757
 30
0.0
 11
3.040796
 21
1.711757
 31
0.0
  0
LINE
  5
632
100
AcDbEntity
  8
3
  6
SOLID
 62
     0
100
AcDbLine
 10
3.040796
 20
1.983138
 30
0.0
 11
3.040796
 21
2.015704
 31
0.0
  0
LINE
  5
633
100
AcDbEntity
  8
3
  6
SOLID
 62
     0
100
AcDbLine
 10
3.42073
 20
2.004347
 30
0.0
 11
3.42073
 21
2.004849
 31
0.0
  0
LINE
  5
634
100
AcDbEntity
  8
3
  6
SOLID
 62
     0
100
AcDbLine
 10
3.160204
 20
1.983138
 30
0.0
 11
3.160204
 21
2.004849
 31
0.0
  0
LINE
  5
635
100
AcDbEntity
  8
3
  6
SOLID
 62
     0
100
AcDbLine
 10
3.540138
 20
1.798599
 30
0.0
 11
3.160204
 21
1.798599
 31
0.0
  0
LINE
  5
636
100
AcDbEntity
  8
3
  6
SOLID
 62
     0
100
AcDbLine
 10
3.38979
 20
1.971821
 30
0.0
 11
3.143928
 21
1.959528
 31
0.0
  0
LINE
  5
637
100
AcDbEntity
  8
3
  6
SOLID
 62
     0
100
AcDbLine
 10
3.437006
 20
1.876485
 30
0.0
 11
3.191143
 21
1.864192
 31
0.0
  0
LINE
  5
638
100
AcDbEntity
  8
3
  6
SOLID
 62
     0
100
AcDbLine
 10
3.160204
 20
1.983138
 30
0.0
 11
3.040796
 21
1.983138
 31
0.0
  0
ARC
  5
639
100
AcDbEntity
  8
3
  6
SOLID
 62
     0
100
AcDbCircle
 10
3.19277
 20
1.831667
 30
0.0
 40
0.032566
210
0.0
220
0.0
230
1.0
100
AcDbArc
 50
92.862405
 51
180.000005
  0
ARC
  5
63A
100
AcDbEntity
  8
3
  6
SOLID
 62
     0
100
AcDbCircle
 10
3.388164
 20
2.004347
 30
0.0
 40
0.032566
210
0.0
220
0.0
230
1.0
100
AcDbArc
 50
272.862396
 51
360.000003
  0
ARC
  5
63B
100
AcDbEntity
  8
3
  6
SOLID
 62
     0
100
AcDbCircle
 10
3.388164
 20
2.004849
 30
0.0
 40
0.032566
210
0.0
220
0.0
230
1.0
100
AcDbArc
 50
0.0
 51
90.000003
  0
ARC
  5
63C
100
AcDbEntity
  8
3
  6
SOLID
 62
     0
100
AcDbCircle
 10
3.192769
 20
2.004849
 30
0.0
 40
0.032566
210
0.0
220
0.0
230
1.0
100
AcDbArc
 50
90.000003
 51
180.000005
  0
ARC
  5
63D
100
AcDbEntity
  8
3
  6
SOLID
 62
     0
100
AcDbCircle
 10
3.149348
 20
2.015704
 30
0.0
 40
0.108553
210
0.0
220
0.0
230
1.0
100
AcDbArc
 50
90.000002
 51
180.000005
  0
ARC
  5
63E
100
AcDbEntity
  8
3
  6
SOLID
 62
     0
100
AcDbCircle
 10
3.431585
 20
2.015704
 30
0.0
 40
0.108553
210
0.0
220
0.0
230
1.0
100
AcDbArc
 50
0.0
 51
90.000002
  0
ARC
  5
63F
100
AcDbEntity
  8
3
  6
SOLID
 62
     0
100
AcDbCircle
 10
3.431585
 20
1.984902
 30
0.0
 40
0.108553
210
0.0
220
0.0
230
1.0
100
AcDbArc
 50
272.862396
 51
359.999996
  0
ARC
  5
640
100
AcDbEntity
  8
3
  6
SOLID
 62
     0
100
AcDbCircle
 10
3.149348
 20
1.851111
 30
0.0
 40
0.108553
210
0.0
220
0.0
230
1.0
100
AcDbArc
 50
92.862398
 51
180.000005
  0
LINE
  5
641
100
AcDbEntity
  8
3
  6
SOLID
 62
     0
100
AcDbLine
 10
3.160204
 20
1.831667
 30
0.0
 11
3.160204
 21
1.798599
 31
0.0
  0
LINE
  5
642
100
AcDbEntity
  8
3
  6
SOLID
 62
     0
100
AcDbLine
 10
3.540138
 20
2.015704
 30
0.0
 11
3.540138
 21
1.984902
 31
0.0
  0
LINE
  5
643
100
AcDbEntity
  8
3
  6
SOLID
 62
     0
100
AcDbLine
 10
3.149348
 20
2.124257
 30
0.0
 11
3.431585
 21
2.124257
 31
0.0
  0
LINE
  5
644
100
AcDbEntity
  8
3
  6
SOLID
 62
     0
100
AcDbLine
 10
3.192769
 20
2.037415
 30
0.0
 11
3.388164
 21
2.037415
 31
0.0
  0
LINE
  5
645
100
AcDbEntity
  8
3
  6
SOLID
 62
     0
100
AcDbLine
 10
3.409419
 20
-2.104318
 30
0.0
 11
3.409419
 21
-2.028331
 31
0.0
  0
LINE
  5
646
100
AcDbEntity
  8
3
  6
SOLID
 62
     0
100
AcDbLine
 10
3.290011
 20
-2.104318
 30
0.0
 11
3.290011
 21
-2.028331
 31
0.0
  0
LINE
  5
647
100
AcDbEntity
  8
3
  6
SOLID
 62
     0
100
AcDbLine
 10
3.105471
 20
-1.941489
 30
0.0
 11
3.105471
 21
-1.931577
 31
0.0
  0
LINE
  5
648
100
AcDbEntity
  8
3
  6
SOLID
 62
     0
100
AcDbLine
 10
2.986063
 20
-2.028331
 30
0.0
 11
3.290011
 21
-2.028331
 31
0.0
  0
LINE
  5
649
100
AcDbEntity
  8
3
  6
SOLID
 62
     0
100
AcDbLine
 10
3.105471
 20
-1.941489
 30
0.0
 11
3.290011
 21
-1.941489
 31
0.0
  0
LINE
  5
64A
100
AcDbEntity
  8
3
  6
SOLID
 62
     0
100
AcDbLine
 10
3.203169
 20
-1.691818
 30
0.0
 11
2.986063
 21
-1.876358
 31
0.0
  0
LINE
  5
64B
100
AcDbEntity
  8
3
  6
SOLID
 62
     0
100
AcDbLine
 10
3.272602
 20
-1.789516
 30
0.0
 11
3.290011
 21
-1.789516
 31
0.0
  0
LINE
  5
64C
100
AcDbEntity
  8
3
  6
SOLID
 62
     0
100
AcDbLine
 10
3.409419
 20
-1.941489
 30
0.0
 11
3.485406
 21
-1.941489
 31
0.0
  0
LINE
  5
64D
100
AcDbEntity
  8
3
  6
SOLID
 62
     0
100
AcDbLine
 10
3.409419
 20
-2.028331
 30
0.0
 11
3.485406
 21
-2.028331
 31
0.0
  0
LINE
  5
64E
100
AcDbEntity
  8
3
  6
SOLID
 62
     0
100
AcDbLine
 10
3.409419
 20
-1.941489
 30
0.0
 11
3.409419
 21
-1.691818
 31
0.0
  0
LINE
  5
64F
100
AcDbEntity
  8
3
  6
SOLID
 62
     0
100
AcDbLine
 10
3.485406
 20
-2.028331
 30
0.0
 11
3.485406
 21
-1.941489
 31
0.0
  0
LINE
  5
650
100
AcDbEntity
  8
3
  6
SOLID
 62
     0
100
AcDbLine
 10
3.290011
 20
-2.104318
 30
0.0
 11
3.409419
 21
-2.104318
 31
0.0
  0
LINE
  5
651
100
AcDbEntity
  8
3
  6
SOLID
 62
     0
100
AcDbLine
 10
2.986063
 20
-2.028331
 30
0.0
 11
2.986063
 21
-1.876358
 31
0.0
  0
LINE
  5
652
100
AcDbEntity
  8
3
  6
SOLID
 62
     0
100
AcDbLine
 10
3.203169
 20
-1.691818
 30
0.0
 11
3.409419
 21
-1.691818
 31
0.0
  0
LINE
  5
653
100
AcDbEntity
  8
3
  6
SOLID
 62
     0
100
AcDbLine
 10
3.290011
 20
-1.941489
 30
0.0
 11
3.290011
 21
-1.789516
 31
0.0
  0
LINE
  5
654
100
AcDbEntity
  8
3
  6
SOLID
 62
     0
100
AcDbLine
 10
3.272602
 20
-1.789516
 30
0.0
 11
3.105471
 21
-1.931577
 31
0.0
  0
LINE
  5
655
100
AcDbEntity
  8
3
  6
SOLID
 62
     0
100
AcDbLine
 10
-3.453018
 20
-1.857826
 30
0.0
 11
-3.453018
 21
-1.792694
 31
0.0
  0
LINE
  5
656
100
AcDbEntity
  8
3
  6
SOLID
 62
     0
100
AcDbLine
 10
-2.975386
 20
-2.03151
 30
0.0
 11
-2.975386
 21
-1.966378
 31
0.0
  0
LINE
  5
657
100
AcDbEntity
  8
3
  6
SOLID
 62
     0
100
AcDbLine
 10
-3.366175
 20
-2.118352
 30
0.0
 11
-3.062228
 21
-2.118352
 31
0.0
  0
LINE
  5
658
100
AcDbEntity
  8
3
  6
SOLID
 62
     0
100
AcDbLine
 10
-3.311899
 20
-1.792694
 30
0.0
 11
-3.222252
 21
-1.792694
 31
0.0
  0
LINE
  5
659
100
AcDbEntity
  8
3
  6
SOLID
 62
     0
100
AcDbLine
 10
-3.366175
 20
-1.705852
 30
0.0
 11
-3.208646
 21
-1.705852
 31
0.0
  0
LINE
  5
65A
100
AcDbEntity
  8
3
  6
SOLID
 62
     0
100
AcDbLine
 10
-3.311899
 20
-2.03151
 30
0.0
 11
-3.116504
 21
-2.03151
 31
0.0
  0
LINE
  5
65B
100
AcDbEntity
  8
3
  6
SOLID
 62
     0
100
AcDbLine
 10
-3.311899
 20
-1.868681
 30
0.0
 11
-3.116504
 21
-1.868681
 31
0.0
  0
LINE
  5
65C
100
AcDbEntity
  8
3
  6
SOLID
 62
     0
100
AcDbLine
 10
-3.311899
 20
-1.955523
 30
0.0
 11
-3.116504
 21
-1.955523
 31
0.0
  0
LINE
  5
65D
100
AcDbEntity
  8
3
  6
SOLID
 62
     0
100
AcDbLine
 10
-3.33361
 20
-2.0098
 30
0.0
 11
-3.33361
 21
-1.977234
 31
0.0
  0
LINE
  5
65E
100
AcDbEntity
  8
3
  6
SOLID
 62
     0
100
AcDbLine
 10
-3.094794
 20
-2.0098
 30
0.0
 11
-3.094794
 21
-1.977234
 31
0.0
  0
ARC
  5
65F
100
AcDbEntity
  8
3
  6
SOLID
 62
     0
100
AcDbCircle
 10
-3.366175
 20
-1.792694
 30
0.0
 40
0.086842
210
0.0
220
0.0
230
1.0
100
AcDbArc
 50
90.000002
 51
180.000005
  0
ARC
  5
660
100
AcDbEntity
  8
3
  6
SOLID
 62
     0
100
AcDbCircle
 10
-3.062228
 20
-1.792694
 30
0.0
 40
0.086842
210
0.0
220
0.0
230
1.0
100
AcDbArc
 50
359.999983
 51
443.408948
  0
ARC
  5
661
100
AcDbEntity
  8
3
  6
SOLID
 62
     0
100
AcDbCircle
 10
-3.062228
 20
-2.03151
 30
0.0
 40
0.086842
210
0.0
220
0.0
230
1.0
100
AcDbArc
 50
270.000028
 51
360.000003
  0
ARC
  5
662
100
AcDbEntity
  8
3
  6
SOLID
 62
     0
100
AcDbCircle
 10
-3.366175
 20
-2.03151
 30
0.0
 40
0.086842
210
0.0
220
0.0
230
1.0
100
AcDbArc
 50
180.000005
 51
270.000008
  0
LINE
  5
663
100
AcDbEntity
  8
3
  6
SOLID
 62
     0
100
AcDbLine
 10
-3.33361
 20
-1.846971
 30
0.0
 11
-3.33361
 21
-1.814405
 31
0.0
  0
LINE
  5
664
100
AcDbEntity
  8
3
  6
SOLID
 62
     0
100
AcDbLine
 10
-3.094794
 20
-1.846971
 30
0.0
 11
-3.094794
 21
-1.814405
 31
0.0
  0
ARC
  5
665
100
AcDbEntity
  8
3
  6
SOLID
 62
     0
100
AcDbCircle
 10
-3.311899
 20
-1.814405
 30
0.0
 40
0.021711
210
0.0
220
0.0
230
1.0
100
AcDbArc
 50
90.000003
 51
180.000005
  0
ARC
  5
666
100
AcDbEntity
  8
3
  6
SOLID
 62
     0
100
AcDbCircle
 10
-3.116504
 20
-1.814405
 30
0.0
 40
0.021711
210
0.0
220
0.0
230
1.0
100
AcDbArc
 50
0.0
 51
90.000003
  0
ARC
  5
667
100
AcDbEntity
  8
3
  6
SOLID
 62
     0
100
AcDbCircle
 10
-3.116504
 20
-1.846971
 30
0.0
 40
0.021711
210
0.0
220
0.0
230
1.0
100
AcDbArc
 50
270.000001
 51
360.000003
  0
ARC
  5
668
100
AcDbEntity
  8
3
  6
SOLID
 62
     0
100
AcDbCircle
 10
-3.311899
 20
-1.846971
 30
0.0
 40
0.021711
210
0.0
220
0.0
230
1.0
100
AcDbArc
 50
180.000005
 51
270.000007
  0
ARC
  5
669
100
AcDbEntity
  8
3
  6
SOLID
 62
     0
100
AcDbCircle
 10
-3.311899
 20
-1.977234
 30
0.0
 40
0.021711
210
0.0
220
0.0
230
1.0
100
AcDbArc
 50
90.000003
 51
180.000005
  0
ARC
  5
66A
100
AcDbEntity
  8
3
  6
SOLID
 62
     0
100
AcDbCircle
 10
-3.116504
 20
-1.977234
 30
0.0
 40
0.021711
210
0.0
220
0.0
230
1.0
100
AcDbArc
 50
0.0
 51
90.000003
  0
ARC
  5
66B
100
AcDbEntity
  8
3
  6
SOLID
 62
     0
100
AcDbCircle
 10
-3.116504
 20
-2.0098
 30
0.0
 40
0.021711
210
0.0
220
0.0
230
1.0
100
AcDbArc
 50
270.000001
 51
360.000003
  0
ARC
  5
66C
100
AcDbEntity
  8
3
  6
SOLID
 62
     0
100
AcDbCircle
 10
-3.311899
 20
-2.0098
 30
0.0
 40
0.021711
210
0.0
220
0.0
230
1.0
100
AcDbArc
 50
180.000005
 51
270.000007
  0
ARC
  5
66D
100
AcDbEntity
  8
3
  6
SOLID
 62
     0
100
AcDbCircle
 10
-3.398741
 20
-1.966378
 30
0.0
 40
0.054276
210
0.0
220
0.0
230
1.0
100
AcDbArc
 50
90.000003
 51
180.000005
  0
ARC
  5
66E
100
AcDbEntity
  8
3
  6
SOLID
 62
     0
100
AcDbCircle
 10
-3.029662
 20
-1.966378
 30
0.0
 40
0.054276
210
0.0
220
0.0
230
1.0
100
AcDbArc
 50
0.0
 51
90.000003
  0
ARC
  5
66F
100
AcDbEntity
  8
3
  6
SOLID
 62
     0
100
AcDbCircle
 10
-3.398741
 20
-1.857826
 30
0.0
 40
0.054276
210
0.0
220
0.0
230
1.0
100
AcDbArc
 50
179.999978
 51
270.000001
  0
LINE
  5
670
100
AcDbEntity
  8
3
  6
SOLID
 62
     0
100
AcDbLine
 10
-3.453018
 20
-1.966378
 30
0.0
 11
-3.453018
 21
-2.03151
 31
0.0
  0
LINE
  5
671
100
AcDbEntity
  8
3
  6
SOLID
 62
     0
100
AcDbLine
 10
-2.975386
 20
-1.857826
 30
0.0
 11
-2.975386
 21
-1.792694
 31
0.0
  0
ARC
  5
672
100
AcDbEntity
  8
3
  6
SOLID
 62
     0
100
AcDbCircle
 10
-3.029662
 20
-1.857826
 30
0.0
 40
0.054276
210
0.0
220
0.0
230
1.0
100
AcDbArc
 50
269.999973
 51
360.000003
  0
LINE
  5
673
100
AcDbEntity
  8
3
  6
SOLID
 62
     0
100
AcDbLine
 10
3.706236
 20
-0.034202
 30
0.0
 11
3.586829
 21
-0.034202
 31
0.0
  0
LINE
  5
674
100
AcDbEntity
  8
3
  6
SOLID
 62
     0
100
AcDbLine
 10
3.999329
 20
0.226324
 30
0.0
 11
3.673671
 21
0.226324
 31
0.0
  0
LINE
  5
675
100
AcDbEntity
  8
3
  6
SOLID
 62
     0
100
AcDbLine
 10
4.086171
 20
-0.099334
 30
0.0
 11
4.086171
 21
-0.023347
 31
0.0
  0
LINE
  5
676
100
AcDbEntity
  8
3
  6
SOLID
 62
     0
100
AcDbLine
 10
3.945052
 20
0.128627
 30
0.0
 11
3.727947
 21
0.128627
 31
0.0
  0
LINE
  5
677
100
AcDbEntity
  8
3
  6
SOLID
 62
     0
100
AcDbLine
 10
3.945052
 20
-0.088478
 30
0.0
 11
3.727947
 21
-0.088478
 31
0.0
  0
LINE
  5
678
100
AcDbEntity
  8
3
  6
SOLID
 62
     0
100
AcDbLine
 10
3.945052
 20
0.063495
 30
0.0
 11
3.782223
 21
0.063495
 31
0.0
  0
LINE
  5
679
100
AcDbEntity
  8
3
  6
SOLID
 62
     0
100
AcDbLine
 10
3.945052
 20
-0.023347
 30
0.0
 11
3.782223
 21
-0.023347
 31
0.0
  0
LINE
  5
67A
100
AcDbEntity
  8
3
  6
SOLID
 62
     0
100
AcDbLine
 10
3.782223
 20
-0.023347
 30
0.0
 11
3.782223
 21
0.063495
 31
0.0
  0
LINE
  5
67B
100
AcDbEntity
  8
3
  6
SOLID
 62
     0
100
AcDbLine
 10
3.999329
 20
-0.186176
 30
0.0
 11
3.673671
 21
-0.186176
 31
0.0
  0
LINE
  5
67C
100
AcDbEntity
  8
3
  6
SOLID
 62
     0
100
AcDbLine
 10
3.706236
 20
0.074351
 30
0.0
 11
3.586829
 21
0.074351
 31
0.0
  0
LINE
  5
67D
100
AcDbEntity
  8
3
  6
SOLID
 62
     0
100
AcDbLine
 10
3.586829
 20
-0.099334
 30
0.0
 11
3.586829
 21
-0.034202
 31
0.0
  0
LINE
  5
67E
100
AcDbEntity
  8
3
  6
SOLID
 62
     0
100
AcDbLine
 10
3.706236
 20
-0.066768
 30
0.0
 11
3.706236
 21
-0.034202
 31
0.0
  0
LINE
  5
67F
100
AcDbEntity
  8
3
  6
SOLID
 62
     0
100
AcDbLine
 10
3.586829
 20
0.074351
 30
0.0
 11
3.586829
 21
0.139482
 31
0.0
  0
LINE
  5
680
100
AcDbEntity
  8
3
  6
SOLID
 62
     0
100
AcDbLine
 10
3.706236
 20
0.074351
 30
0.0
 11
3.706236
 21
0.106916
 31
0.0
  0
LINE
  5
681
100
AcDbEntity
  8
3
  6
SOLID
 62
     0
100
AcDbLine
 10
3.966763
 20
0.106916
 30
0.0
 11
3.966763
 21
0.085206
 31
0.0
  0
ARC
  5
682
100
AcDbEntity
  8
3
  6
SOLID
 62
     0
100
AcDbCircle
 10
3.727947
 20
0.106916
 30
0.0
 40
0.021711
210
0.0
220
0.0
230
1.0
100
AcDbArc
 50
89.999934
 51
180.000019
  0
ARC
  5
683
100
AcDbEntity
  8
3
  6
SOLID
 62
     0
100
AcDbCircle
 10
3.945052
 20
0.106916
 30
0.0
 40
0.021711
210
0.0
220
0.0
230
1.0
100
AcDbArc
 50
0.0
 51
90.000002
  0
ARC
  5
684
100
AcDbEntity
  8
3
  6
SOLID
 62
     0
100
AcDbCircle
 10
3.945052
 20
-0.066768
 30
0.0
 40
0.021711
210
0.0
220
0.0
230
1.0
100
AcDbArc
 50
270.000001
 51
360.000003
  0
ARC
  5
685
100
AcDbEntity
  8
3
  6
SOLID
 62
     0
100
AcDbCircle
 10
3.727947
 20
-0.066768
 30
0.0
 40
0.021711
210
0.0
220
0.0
230
1.0
100
AcDbArc
 50
180.000005
 51
270.000035
  0
LINE
  5
686
100
AcDbEntity
  8
3
  6
SOLID
 62
     0
100
AcDbLine
 10
3.966763
 20
-0.045057
 30
0.0
 11
3.966763
 21
-0.066768
 31
0.0
  0
ARC
  5
687
100
AcDbEntity
  8
3
  6
SOLID
 62
     0
100
AcDbCircle
 10
3.945052
 20
-0.045057
 30
0.0
 40
0.021711
210
0.0
220
0.0
230
1.0
100
AcDbArc
 50
0.0
 51
90.000002
  0
ARC
  5
688
100
AcDbEntity
  8
3
  6
SOLID
 62
     0
100
AcDbCircle
 10
3.945052
 20
0.085206
 30
0.0
 40
0.021711
210
0.0
220
0.0
230
1.0
100
AcDbArc
 50
270.000001
 51
360.000003
  0
LINE
  5
689
100
AcDbEntity
  8
3
  6
SOLID
 62
     0
100
AcDbLine
 10
4.086171
 20
0.063495
 30
0.0
 11
4.086171
 21
0.139482
 31
0.0
  0
ARC
  5
68A
100
AcDbEntity
  8
3
  6
SOLID
 62
     0
100
AcDbCircle
 10
4.04275
 20
0.063495
 30
0.0
 40
0.043421
210
0.0
220
0.0
230
1.0
100
AcDbArc
 50
270.000001
 51
360.000003
  0
ARC
  5
68B
100
AcDbEntity
  8
3
  6
SOLID
 62
     0
100
AcDbCircle
 10
4.04275
 20
-0.023347
 30
0.0
 40
0.043421
210
0.0
220
0.0
230
1.0
100
AcDbArc
 50
359.999983
 51
450.000012
  0
ARC
  5
68C
100
AcDbEntity
  8
3
  6
SOLID
 62
     0
100
AcDbCircle
 10
3.999328
 20
-0.099334
 30
0.0
 40
0.086842
210
0.0
220
0.0
230
1.0
100
AcDbArc
 50
270.000028
 51
360.000003
  0
ARC
  5
68D
100
AcDbEntity
  8
3
  6
SOLID
 62
     0
100
AcDbCircle
 10
3.999328
 20
0.139482
 30
0.0
 40
0.086842
210
0.0
220
0.0
230
1.0
100
AcDbArc
 50
0.0
 51
89.999982
  0
ARC
  5
68E
100
AcDbEntity
  8
3
  6
SOLID
 62
     0
100
AcDbCircle
 10
3.673671
 20
0.139482
 30
0.0
 40
0.086842
210
0.0
220
0.0
230
1.0
100
AcDbArc
 50
90.000002
 51
180.000005
  0
ARC
  5
68F
100
AcDbEntity
  8
3
  6
SOLID
 62
     0
100
AcDbCircle
 10
3.673671
 20
-0.099334
 30
0.0
 40
0.086842
210
0.0
220
0.0
230
1.0
100
AcDbArc
 50
180.000005
 51
270.000001
  0
LINE
  5
690
100
AcDbEntity
  8
3
  6
SOLID
 62
     0
100
AcDbLine
 10
1.662998
 20
-3.397854
 30
0.0
 11
1.662998
 21
-3.354433
 31
0.0
  0
LINE
  5
691
100
AcDbEntity
  8
3
  6
SOLID
 62
     0
100
AcDbLine
 10
2.16234
 20
-3.397854
 30
0.0
 11
2.16234
 21
-3.289301
 31
0.0
  0
LINE
  5
692
100
AcDbEntity
  8
3
  6
SOLID
 62
     0
100
AcDbLine
 10
1.74984
 20
-3.484696
 30
0.0
 11
2.075498
 21
-3.484696
 31
0.0
  0
LINE
  5
693
100
AcDbEntity
  8
3
  6
SOLID
 62
     0
100
AcDbLine
 10
1.684708
 20
-3.072196
 30
0.0
 11
2.140629
 21
-3.072196
 31
0.0
  0
LINE
  5
694
100
AcDbEntity
  8
3
  6
SOLID
 62
     0
100
AcDbLine
 10
1.684708
 20
-3.311012
 30
0.0
 11
1.684708
 21
-3.072196
 31
0.0
  0
LINE
  5
695
100
AcDbEntity
  8
3
  6
SOLID
 62
     0
100
AcDbLine
 10
2.140629
 20
-3.159038
 30
0.0
 11
2.140629
 21
-3.072196
 31
0.0
  0
LINE
  5
696
100
AcDbEntity
  8
3
  6
SOLID
 62
     0
100
AcDbLine
 10
1.814972
 20
-3.397854
 30
0.0
 11
1.988656
 21
-3.397854
 31
0.0
  0
LINE
  5
697
100
AcDbEntity
  8
3
  6
SOLID
 62
     0
100
AcDbLine
 10
1.793261
 20
-3.159038
 30
0.0
 11
2.140629
 21
-3.159038
 31
0.0
  0
LINE
  5
698
100
AcDbEntity
  8
3
  6
SOLID
 62
     0
100
AcDbLine
 10
2.032077
 20
-3.354433
 30
0.0
 11
2.032077
 21
-3.332722
 31
0.0
  0
LINE
  5
699
100
AcDbEntity
  8
3
  6
SOLID
 62
     0
100
AcDbLine
 10
1.814972
 20
-3.289301
 30
0.0
 11
1.988656
 21
-3.289301
 31
0.0
  0
LINE
  5
69A
100
AcDbEntity
  8
3
  6
SOLID
 62
     0
100
AcDbLine
 10
1.814972
 20
-3.202459
 30
0.0
 11
2.075498
 21
-3.202459
 31
0.0
  0
LINE
  5
69B
100
AcDbEntity
  8
3
  6
SOLID
 62
     0
100
AcDbLine
 10
1.684708
 20
-3.311012
 30
0.0
 11
1.793261
 21
-3.311012
 31
0.0
  0
LINE
  5
69C
100
AcDbEntity
  8
3
  6
SOLID
 62
     0
100
AcDbLine
 10
1.662998
 20
-3.354433
 30
0.0
 11
1.793261
 21
-3.354433
 31
0.0
  0
LINE
  5
69D
100
AcDbEntity
  8
3
  6
SOLID
 62
     0
100
AcDbLine
 10
1.793261
 20
-3.22417
 30
0.0
 11
1.793261
 21
-3.159038
 31
0.0
  0
ARC
  5
69E
100
AcDbEntity
  8
3
  6
SOLID
 62
     0
100
AcDbCircle
 10
1.814972
 20
-3.22417
 30
0.0
 40
0.021711
210
0.0
220
0.0
230
1.0
100
AcDbArc
 50
90.000003
 51
180.000005
  0
ARC
  5
69F
100
AcDbEntity
  8
3
  6
SOLID
 62
     0
100
AcDbCircle
 10
1.814972
 20
-3.311012
 30
0.0
 40
0.021711
210
0.0
220
0.0
230
1.0
100
AcDbArc
 50
90.000003
 51
180.000005
  0
ARC
  5
6A0
100
AcDbEntity
  8
3
  6
SOLID
 62
     0
100
AcDbCircle
 10
1.988656
 20
-3.332722
 30
0.0
 40
0.043421
210
0.0
220
0.0
230
1.0
100
AcDbArc
 50
359.999983
 51
450.000012
  0
ARC
  5
6A1
100
AcDbEntity
  8
3
  6
SOLID
 62
     0
100
AcDbCircle
 10
1.988656
 20
-3.354433
 30
0.0
 40
0.043421
210
0.0
220
0.0
230
1.0
100
AcDbArc
 50
270.000028
 51
360.000003
  0
LINE
  5
6A2
100
AcDbEntity
  8
3
  6
SOLID
 62
     0
100
AcDbLine
 10
1.793261
 20
-3.354433
 30
0.0
 11
1.793261
 21
-3.376143
 31
0.0
  0
ARC
  5
6A3
100
AcDbEntity
  8
3
  6
SOLID
 62
     0
100
AcDbCircle
 10
1.814972
 20
-3.376143
 30
0.0
 40
0.021711
210
0.0
220
0.0
230
1.0
100
AcDbArc
 50
180.000005
 51
270.000007
  0
ARC
  5
6A4
100
AcDbEntity
  8
3
  6
SOLID
 62
     0
100
AcDbCircle
 10
1.74984
 20
-3.397854
 30
0.0
 40
0.086842
210
0.0
220
0.0
230
1.0
100
AcDbArc
 50
180.000005
 51
270.000001
  0
ARC
  5
6A5
100
AcDbEntity
  8
3
  6
SOLID
 62
     0
100
AcDbCircle
 10
2.075498
 20
-3.397854
 30
0.0
 40
0.086842
210
0.0
220
0.0
230
1.0
100
AcDbArc
 50
269.999973
 51
360.000003
  0
ARC
  5
6A6
100
AcDbEntity
  8
3
  6
SOLID
 62
     0
100
AcDbCircle
 10
2.075498
 20
-3.289301
 30
0.0
 40
0.086842
210
0.0
220
0.0
230
1.0
100
AcDbArc
 50
0.0
 51
90.000002
  0
LINE
  5
6A7
100
AcDbEntity
  8
3
  6
SOLID
 62
     0
100
AcDbLine
 10
-0.250375
 20
-3.94279
 30
0.0
 11
-0.250375
 21
-3.747395
 31
0.0
  0
LINE
  5
6A8
100
AcDbEntity
  8
3
  6
SOLID
 62
     0
100
AcDbLine
 10
0.248967
 20
-3.94279
 30
0.0
 11
0.248967
 21
-3.899368
 31
0.0
  0
LINE
  5
6A9
100
AcDbEntity
  8
3
  6
SOLID
 62
     0
100
AcDbLine
 10
-0.141823
 20
-4.051342
 30
0.0
 11
0.140414
 21
-4.051342
 31
0.0
  0
LINE
  5
6AA
100
AcDbEntity
  8
3
  6
SOLID
 62
     0
100
AcDbLine
 10
-0.141823
 20
-3.638842
 30
0.0
 11
0.140414
 21
-3.638842
 31
0.0
  0
LINE
  5
6AB
100
AcDbEntity
  8
3
  6
SOLID
 62
     0
100
AcDbLine
 10
-0.098402
 20
-3.725684
 30
0.0
 11
0.096993
 21
-3.725684
 31
0.0
  0
LINE
  5
6AC
100
AcDbEntity
  8
3
  6
SOLID
 62
     0
100
AcDbLine
 10
-0.098402
 20
-3.9645
 30
0.0
 11
0.096993
 21
-3.9645
 31
0.0
  0
LINE
  5
6AD
100
AcDbEntity
  8
3
  6
SOLID
 62
     0
100
AcDbLine
 10
-0.098402
 20
-3.877658
 30
0.0
 11
0.096993
 21
-3.877658
 31
0.0
  0
LINE
  5
6AE
100
AcDbEntity
  8
3
  6
SOLID
 62
     0
100
AcDbLine
 10
-0.087547
 20
-3.790816
 30
0.0
 11
0.140414
 21
-3.790816
 31
0.0
  0
LINE
  5
6AF
100
AcDbEntity
  8
3
  6
SOLID
 62
     0
100
AcDbLine
 10
0.129559
 20
-3.931934
 30
0.0
 11
0.129559
 21
-3.910224
 31
0.0
  0
LINE
  5
6B0
100
AcDbEntity
  8
3
  6
SOLID
 62
     0
100
AcDbLine
 10
0.129559
 20
-3.769105
 30
0.0
 11
0.248967
 21
-3.769105
 31
0.0
  0
LINE
  5
6B1
100
AcDbEntity
  8
3
  6
SOLID
 62
     0
100
AcDbLine
 10
0.129559
 20
-3.769105
 30
0.0
 11
0.129559
 21
-3.75825
 31
0.0
  0
LINE
  5
6B2
100
AcDbEntity
  8
3
  6
SOLID
 62
     0
100
AcDbLine
 10
0.248967
 20
-3.769105
 30
0.0
 11
0.248967
 21
-3.747395
 31
0.0
  0
ARC
  5
6B3
100
AcDbEntity
  8
3
  6
SOLID
 62
     0
100
AcDbCircle
 10
0.096993
 20
-3.910224
 30
0.0
 40
0.032566
210
0.0
220
0.0
230
1.0
100
AcDbArc
 50
0.0
 51
90.000003
  0
ARC
  5
6B4
100
AcDbEntity
  8
3
  6
SOLID
 62
     0
100
AcDbCircle
 10
0.096993
 20
-3.931934
 30
0.0
 40
0.032566
210
0.0
220
0.0
230
1.0
100
AcDbArc
 50
270.000001
 51
360.000003
  0
ARC
  5
6B5
100
AcDbEntity
  8
3
  6
SOLID
 62
     0
100
AcDbCircle
 10
-0.098402
 20
-3.931934
 30
0.0
 40
0.032566
210
0.0
220
0.0
230
1.0
100
AcDbArc
 50
180.000005
 51
270.000008
  0
ARC
  5
6B6
100
AcDbEntity
  8
3
  6
SOLID
 62
     0
100
AcDbCircle
 10
-0.098402
 20
-3.910224
 30
0.0
 40
0.032566
210
0.0
220
0.0
230
1.0
100
AcDbArc
 50
90.000003
 51
180.000005
  0
ARC
  5
6B7
100
AcDbEntity
  8
3
  6
SOLID
 62
     0
100
AcDbCircle
 10
0.096993
 20
-3.75825
 30
0.0
 40
0.032566
210
0.0
220
0.0
230
1.0
100
AcDbArc
 50
0.0
 51
90.000043
  0
ARC
  5
6B8
100
AcDbEntity
  8
3
  6
SOLID
 62
     0
100
AcDbCircle
 10
-0.098402
 20
-3.75825
 30
0.0
 40
0.032566
210
0.0
220
0.0
230
1.0
100
AcDbArc
 50
90.000003
 51
180.000005
  0
ARC
  5
6B9
100
AcDbEntity
  8
3
  6
SOLID
 62
     0
100
AcDbCircle
 10
-0.141823
 20
-3.747395
 30
0.0
 40
0.108553
210
0.0
220
0.0
230
1.0
100
AcDbArc
 50
90.000002
 51
180.000005
  0
ARC
  5
6BA
100
AcDbEntity
  8
3
  6
SOLID
 62
     0
100
AcDbCircle
 10
0.140414
 20
-3.747395
 30
0.0
 40
0.108553
210
0.0
220
0.0
230
1.0
100
AcDbArc
 50
0.0
 51
90.000002
  0
ARC
  5
6BB
100
AcDbEntity
  8
3
  6
SOLID
 62
     0
100
AcDbCircle
 10
-0.141823
 20
-3.94279
 30
0.0
 40
0.108553
210
0.0
220
0.0
230
1.0
100
AcDbArc
 50
180.000005
 51
270.000001
  0
ARC
  5
6BC
100
AcDbEntity
  8
3
  6
SOLID
 62
     0
100
AcDbCircle
 10
0.140414
 20
-3.94279
 30
0.0
 40
0.108553
210
0.0
220
0.0
230
1.0
100
AcDbArc
 50
270.000001
 51
360.000003
  0
ARC
  5
6BD
100
AcDbEntity
  8
3
  6
SOLID
 62
     0
100
AcDbCircle
 10
0.140414
 20
-3.899368
 30
0.0
 40
0.108553
210
0.0
220
0.0
230
1.0
100
AcDbArc
 50
0.0
 51
90.000002
  0
LINE
  5
6BE
100
AcDbEntity
  8
3
  6
SOLID
 62
     0
100
AcDbLine
 10
-0.130968
 20
-3.910224
 30
0.0
 11
-0.130968
 21
-3.931934
 31
0.0
  0
ARC
  5
6BF
100
AcDbEntity
  8
3
  6
SOLID
 62
     0
100
AcDbCircle
 10
-0.087547
 20
-3.834237
 30
0.0
 40
0.043421
210
0.0
220
0.0
230
1.0
100
AcDbArc
 50
90.000002
 51
180.000005
  0
LINE
  5
6C0
100
AcDbEntity
  8
3
  6
SOLID
 62
     0
100
AcDbLine
 10
-0.130968
 20
-3.75825
 30
0.0
 11
-0.130968
 21
-3.834237
 31
0.0
  0
LINE
  5
6C1
100
AcDbEntity
  8
3
  6
SOLID
 62
     0
100
AcDbLine
 10
-1.61688
 20
-3.242031
 30
0.0
 11
-1.61688
 21
-3.144334
 31
0.0
  0
LINE
  5
6C2
100
AcDbEntity
  8
3
  6
SOLID
 62
     0
100
AcDbLine
 10
-2.094511
 20
-3.252886
 30
0.0
 11
-2.094511
 21
-3.144334
 31
0.0
  0
LINE
  5
6C3
100
AcDbEntity
  8
3
  6
SOLID
 62
     0
100
AcDbLine
 10
-1.855695
 20
-3.556834
 30
0.0
 11
-2.007669
 21
-3.556834
 31
0.0
  0
LINE
  5
6C4
100
AcDbEntity
  8
3
  6
SOLID
 62
     0
100
AcDbLine
 10
-1.61688
 20
-3.144334
 30
0.0
 11
-2.094511
 21
-3.144334
 31
0.0
  0
LINE
  5
6C5
100
AcDbEntity
  8
3
  6
SOLID
 62
     0
100
AcDbLine
 10
-1.777088
 20
-3.252886
 30
0.0
 11
-2.094511
 21
-3.252886
 31
0.0
  0
LINE
  5
6C6
100
AcDbEntity
  8
3
  6
SOLID
 62
     0
100
AcDbLine
 10
-1.61688
 20
-3.242031
 30
0.0
 11
-1.855695
 21
-3.556834
 31
0.0
  0
LINE
  5
6C7
100
AcDbEntity
  8
3
  6
SOLID
 62
     0
100
AcDbLine
 10
-1.777088
 20
-3.252886
 30
0.0
 11
-2.007669
 21
-3.556834
 31
0.0
  0
LINE
  5
6C8
100
AcDbEntity
  8
3
  6
SOLID
 62
     0
100
AcDbLine
 10
-3.572724
 20
0.103505
 30
0.0
 11
-3.572724
 21
-0.09189
 31
0.0
  0
LINE
  5
6C9
100
AcDbEntity
  8
3
  6
SOLID
 62
     0
100
AcDbLine
 10
-4.072067
 20
0.103505
 30
0.0
 11
-4.072067
 21
0.060084
 31
0.0
  0
LINE
  5
6CA
100
AcDbEntity
  8
3
  6
SOLID
 62
     0
100
AcDbLine
 10
-3.681277
 20
0.212058
 30
0.0
 11
-3.963514
 21
0.212058
 31
0.0
  0
LINE
  5
6CB
100
AcDbEntity
  8
3
  6
SOLID
 62
     0
100
AcDbLine
 10
-3.681277
 20
-0.200442
 30
0.0
 11
-3.963514
 21
-0.200442
 31
0.0
  0
LINE
  5
6CC
100
AcDbEntity
  8
3
  6
SOLID
 62
     0
100
AcDbLine
 10
-3.724698
 20
-0.1136
 30
0.0
 11
-3.920093
 21
-0.1136
 31
0.0
  0
LINE
  5
6CD
100
AcDbEntity
  8
3
  6
SOLID
 62
     0
100
AcDbLine
 10
-3.724698
 20
0.125216
 30
0.0
 11
-3.920093
 21
0.125216
 31
0.0
  0
LINE
  5
6CE
100
AcDbEntity
  8
3
  6
SOLID
 62
     0
100
AcDbLine
 10
-3.724698
 20
0.038373
 30
0.0
 11
-3.920093
 21
0.038373
 31
0.0
  0
LINE
  5
6CF
100
AcDbEntity
  8
3
  6
SOLID
 62
     0
100
AcDbLine
 10
-3.735553
 20
-0.048469
 30
0.0
 11
-3.963514
 21
-0.048469
 31
0.0
  0
LINE
  5
6D0
100
AcDbEntity
  8
3
  6
SOLID
 62
     0
100
AcDbLine
 10
-3.952659
 20
0.09265
 30
0.0
 11
-3.952659
 21
0.070939
 31
0.0
  0
LINE
  5
6D1
100
AcDbEntity
  8
3
  6
SOLID
 62
     0
100
AcDbLine
 10
-3.952659
 20
-0.070179
 30
0.0
 11
-4.072067
 21
-0.070179
 31
0.0
  0
LINE
  5
6D2
100
AcDbEntity
  8
3
  6
SOLID
 62
     0
100
AcDbLine
 10
-3.952659
 20
-0.070179
 30
0.0
 11
-3.952659
 21
-0.081034
 31
0.0
  0
LINE
  5
6D3
100
AcDbEntity
  8
3
  6
SOLID
 62
     0
100
AcDbLine
 10
-4.072067
 20
-0.070179
 30
0.0
 11
-4.072067
 21
-0.09189
 31
0.0
  0
ARC
  5
6D4
100
AcDbEntity
  8
3
  6
SOLID
 62
     0
100
AcDbCircle
 10
-3.920093
 20
0.070939
 30
0.0
 40
0.032566
210
0.0
220
0.0
230
1.0
100
AcDbArc
 50
180.000005
 51
270.000008
  0
ARC
  5
6D5
100
AcDbEntity
  8
3
  6
SOLID
 62
     0
100
AcDbCircle
 10
-3.920093
 20
0.09265
 30
0.0
 40
0.032566
210
0.0
220
0.0
230
1.0
100
AcDbArc
 50
90.000016
 51
180.000019
  0
ARC
  5
6D6
100
AcDbEntity
  8
3
  6
SOLID
 62
     0
100
AcDbCircle
 10
-3.724698
 20
0.09265
 30
0.0
 40
0.032566
210
0.0
220
0.0
230
1.0
100
AcDbArc
 50
0.00001
 51
90.000013
  0
ARC
  5
6D7
100
AcDbEntity
  8
3
  6
SOLID
 62
     0
100
AcDbCircle
 10
-3.724698
 20
0.070939
 30
0.0
 40
0.032566
210
0.0
220
0.0
230
1.0
100
AcDbArc
 50
270.000001
 51
360.000003
  0
ARC
  5
6D8
100
AcDbEntity
  8
3
  6
SOLID
 62
     0
100
AcDbCircle
 10
-3.920093
 20
-0.081034
 30
0.0
 40
0.032566
210
0.0
220
0.0
230
1.0
100
AcDbArc
 50
180.000005
 51
270.000048
  0
ARC
  5
6D9
100
AcDbEntity
  8
3
  6
SOLID
 62
     0
100
AcDbCircle
 10
-3.724698
 20
-0.081034
 30
0.0
 40
0.032566
210
0.0
220
0.0
230
1.0
100
AcDbArc
 50
270.000001
 51
360.000003
  0
ARC
  5
6DA
100
AcDbEntity
  8
3
  6
SOLID
 62
     0
100
AcDbCircle
 10
-3.681277
 20
-0.09189
 30
0.0
 40
0.108553
210
0.0
220
0.0
230
1.0
100
AcDbArc
 50
270.000001
 51
360.000003
  0
ARC
  5
6DB
100
AcDbEntity
  8
3
  6
SOLID
 62
     0
100
AcDbCircle
 10
-3.963514
 20
-0.09189
 30
0.0
 40
0.108553
210
0.0
220
0.0
230
1.0
100
AcDbArc
 50
180.000005
 51
270.000008
  0
ARC
  5
6DC
100
AcDbEntity
  8
3
  6
SOLID
 62
     0
100
AcDbCircle
 10
-3.681277
 20
0.103505
 30
0.0
 40
0.108553
210
0.0
220
0.0
230
1.0
100
AcDbArc
 50
0.00001
 51
90.000006
  0
ARC
  5
6DD
100
AcDbEntity
  8
3
  6
SOLID
 62
     0
100
AcDbCircle
 10
-3.963514
 20
0.103505
 30
0.0
 40
0.108553
210
0.0
220
0.0
230
1.0
100
AcDbArc
 50
90.000016
 51
180.000019
  0
ARC
  5
6DE
100
AcDbEntity
  8
3
  6
SOLID
 62
     0
100
AcDbCircle
 10
-3.963514
 20
0.060084
 30
0.0
 40
0.108553
210
0.0
220
0.0
230
1.0
100
AcDbArc
 50
180.000005
 51
270.000008
  0
LINE
  5
6DF
100
AcDbEntity
  8
3
  6
SOLID
 62
     0
100
AcDbLine
 10
-3.692132
 20
0.070939
 30
0.0
 11
-3.692132
 21
0.09265
 31
0.0
  0
ARC
  5
6E0
100
AcDbEntity
  8
3
  6
SOLID
 62
     0
100
AcDbCircle
 10
-3.735553
 20
-0.005048
 30
0.0
 40
0.043421
210
0.0
220
0.0
230
1.0
100
AcDbArc
 50
270.000001
 51
360.000003
  0
LINE
  5
6E1
100
AcDbEntity
  8
3
  6
SOLID
 62
     0
100
AcDbLine
 10
-3.692132
 20
-0.081034
 30
0.0
 11
-3.692132
 21
-0.005048
 31
0.0
  0
LINE
  5
6E2
100
AcDbEntity
  8
3
  6
SOLID
 62
     0
100
AcDbLine
 10
-3.307004
 20
1.545501
 30
0.0
 11
-3.307004
 21
1.958001
 31
0.0
  0
LINE
  5
6E3
100
AcDbEntity
  8
3
  6
SOLID
 62
     0
100
AcDbLine
 10
-3.307004
 20
1.545501
 30
0.0
 11
-3.437268
 21
1.545501
 31
0.0
  0
LINE
  5
6E4
100
AcDbEntity
  8
3
  6
SOLID
 62
     0
100
AcDbLine
 10
-3.437268
 20
1.849448
 30
0.0
 11
-3.462243
 21
1.849448
 31
0.0
  0
LINE
  5
6E5
100
AcDbEntity
  8
3
  6
SOLID
 62
     0
100
AcDbLine
 10
-3.307004
 20
1.958001
 30
0.0
 11
-3.502399
 21
1.958001
 31
0.0
  0
LINE
  5
6E6
100
AcDbEntity
  8
3
  6
SOLID
 62
     0
100
AcDbLine
 10
-3.437268
 20
1.545501
 30
0.0
 11
-3.437268
 21
1.849448
 31
0.0
  0
LINE
  5
6E7
100
AcDbEntity
  8
3
  6
SOLID
 62
     0
100
AcDbLine
 10
-3.502399
 20
1.958001
 30
0.0
 11
-3.654373
 21
1.827738
 31
0.0
  0
LINE
  5
6E8
100
AcDbEntity
  8
3
  6
SOLID
 62
     0
100
AcDbLine
 10
-3.462243
 20
1.849448
 30
0.0
 11
-3.583728
 21
1.745318
 31
0.0
  0
LINE
  5
6E9
100
AcDbEntity
  8
3
  6
SOLID
 62
     0
100
AcDbLine
 10
-3.583728
 20
1.745318
 30
0.0
 11
-3.654373
 21
1.827738
 31
0.0
  0
LINE
  5
6EA
100
AcDbEntity
  8
3
  6
SOLID
 62
     0
100
AcDbLine
 10
-3.224518
 20
1.654053
 30
0.0
 11
-3.224518
 21
1.849448
 31
0.0
  0
LINE
  5
6EB
100
AcDbEntity
  8
3
  6
SOLID
 62
     0
100
AcDbLine
 10
-2.703466
 20
1.654053
 30
0.0
 11
-2.703466
 21
1.849448
 31
0.0
  0
LINE
  5
6EC
100
AcDbEntity
  8
3
  6
SOLID
 62
     0
100
AcDbLine
 10
-3.115966
 20
1.545501
 30
0.0
 11
-2.812018
 21
1.545501
 31
0.0
  0
LINE
  5
6ED
100
AcDbEntity
  8
3
  6
SOLID
 62
     0
100
AcDbLine
 10
-3.115966
 20
1.958001
 30
0.0
 11
-2.812018
 21
1.958001
 31
0.0
  0
LINE
  5
6EE
100
AcDbEntity
  8
3
  6
SOLID
 62
     0
100
AcDbLine
 10
-3.094255
 20
1.697474
 30
0.0
 11
-3.094255
 21
1.806027
 31
0.0
  0
LINE
  5
6EF
100
AcDbEntity
  8
3
  6
SOLID
 62
     0
100
AcDbLine
 10
-2.833729
 20
1.697474
 30
0.0
 11
-2.833729
 21
1.806027
 31
0.0
  0
LINE
  5
6F0
100
AcDbEntity
  8
3
  6
SOLID
 62
     0
100
AcDbLine
 10
-3.050834
 20
1.849448
 30
0.0
 11
-2.87715
 21
1.849448
 31
0.0
  0
LINE
  5
6F1
100
AcDbEntity
  8
3
  6
SOLID
 62
     0
100
AcDbLine
 10
-3.050834
 20
1.654053
 30
0.0
 11
-2.87715
 21
1.654053
 31
0.0
  0
ARC
  5
6F2
100
AcDbEntity
  8
3
  6
SOLID
 62
     0
100
AcDbCircle
 10
-3.050834
 20
1.806027
 30
0.0
 40
0.043421
210
0.0
220
0.0
230
1.0
100
AcDbArc
 50
90.000002
 51
180.000032
  0
ARC
  5
6F3
100
AcDbEntity
  8
3
  6
SOLID
 62
     0
100
AcDbCircle
 10
-2.87715
 20
1.806027
 30
0.0
 40
0.043421
210
0.0
220
0.0
230
1.0
100
AcDbArc
 50
359.999955
 51
450.000012
  0
ARC
  5
6F4
100
AcDbEntity
  8
3
  6
SOLID
 62
     0
100
AcDbCircle
 10
-2.87715
 20
1.697474
 30
0.0
 40
0.043421
210
0.0
220
0.0
230
1.0
100
AcDbArc
 50
270.000028
 51
360.000003
  0
ARC
  5
6F5
100
AcDbEntity
  8
3
  6
SOLID
 62
     0
100
AcDbCircle
 10
-3.050834
 20
1.697474
 30
0.0
 40
0.043421
210
0.0
220
0.0
230
1.0
100
AcDbArc
 50
180.000005
 51
270.000008
  0
ARC
  5
6F6
100
AcDbEntity
  8
3
  6
SOLID
 62
     0
100
AcDbCircle
 10
-3.115966
 20
1.849448
 30
0.0
 40
0.108553
210
0.0
220
0.0
230
1.0
100
AcDbArc
 50
90.000002
 51
180.000005
  0
ARC
  5
6F7
100
AcDbEntity
  8
3
  6
SOLID
 62
     0
100
AcDbCircle
 10
-2.812018
 20
1.849448
 30
0.0
 40
0.108553
210
0.0
220
0.0
230
1.0
100
AcDbArc
 50
0.0
 51
90.000002
  0
ARC
  5
6F8
100
AcDbEntity
  8
3
  6
SOLID
 62
     0
100
AcDbCircle
 10
-2.812018
 20
1.654053
 30
0.0
 40
0.108553
210
0.0
220
0.0
230
1.0
100
AcDbArc
 50
270.000001
 51
360.000003
  0
ARC
  5
6F9
100
AcDbEntity
  8
3
  6
SOLID
 62
     0
100
AcDbCircle
 10
-3.115966
 20
1.654053
 30
0.0
 40
0.108553
210
0.0
220
0.0
230
1.0
100
AcDbArc
 50
180.000005
 51
270.000008
  0
LINE
  5
6FA
100
AcDbEntity
  8
3
  6
SOLID
 62
     0
100
AcDbLine
 10
-2.003013
 20
3.024952
 30
0.0
 11
-2.003013
 21
3.437452
 31
0.0
  0
LINE
  5
6FB
100
AcDbEntity
  8
3
  6
SOLID
 62
     0
100
AcDbLine
 10
-2.003013
 20
3.024952
 30
0.0
 11
-2.133277
 21
3.024952
 31
0.0
  0
LINE
  5
6FC
100
AcDbEntity
  8
3
  6
SOLID
 62
     0
100
AcDbLine
 10
-2.133277
 20
3.3289
 30
0.0
 11
-2.158252
 21
3.3289
 31
0.0
  0
LINE
  5
6FD
100
AcDbEntity
  8
3
  6
SOLID
 62
     0
100
AcDbLine
 10
-2.003013
 20
3.437452
 30
0.0
 11
-2.198408
 21
3.437452
 31
0.0
  0
LINE
  5
6FE
100
AcDbEntity
  8
3
  6
SOLID
 62
     0
100
AcDbLine
 10
-2.133277
 20
3.024952
 30
0.0
 11
-2.133277
 21
3.3289
 31
0.0
  0
LINE
  5
6FF
100
AcDbEntity
  8
3
  6
SOLID
 62
     0
100
AcDbLine
 10
-2.198408
 20
3.437452
 30
0.0
 11
-2.350382
 21
3.307189
 31
0.0
  0
LINE
  5
700
100
AcDbEntity
  8
3
  6
SOLID
 62
     0
100
AcDbLine
 10
-2.158252
 20
3.3289
 30
0.0
 11
-2.279737
 21
3.22477
 31
0.0
  0
LINE
  5
701
100
AcDbEntity
  8
3
  6
SOLID
 62
     0
100
AcDbLine
 10
-2.279737
 20
3.22477
 30
0.0
 11
-2.350382
 21
3.307189
 31
0.0
  0
LINE
  5
702
100
AcDbEntity
  8
3
  6
SOLID
 62
     0
100
AcDbLine
 10
-1.573159
 20
3.024952
 30
0.0
 11
-1.573159
 21
3.437452
 31
0.0
  0
LINE
  5
703
100
AcDbEntity
  8
3
  6
SOLID
 62
     0
100
AcDbLine
 10
-1.573159
 20
3.024952
 30
0.0
 11
-1.703422
 21
3.024952
 31
0.0
  0
LINE
  5
704
100
AcDbEntity
  8
3
  6
SOLID
 62
     0
100
AcDbLine
 10
-1.703422
 20
3.3289
 30
0.0
 11
-1.728397
 21
3.3289
 31
0.0
  0
LINE
  5
705
100
AcDbEntity
  8
3
  6
SOLID
 62
     0
100
AcDbLine
 10
-1.573159
 20
3.437452
 30
0.0
 11
-1.768554
 21
3.437452
 31
0.0
  0
LINE
  5
706
100
AcDbEntity
  8
3
  6
SOLID
 62
     0
100
AcDbLine
 10
-1.703422
 20
3.024952
 30
0.0
 11
-1.703422
 21
3.3289
 31
0.0
  0
LINE
  5
707
100
AcDbEntity
  8
3
  6
SOLID
 62
     0
100
AcDbLine
 10
-1.768554
 20
3.437452
 30
0.0
 11
-1.920527
 21
3.307189
 31
0.0
  0
LINE
  5
708
100
AcDbEntity
  8
3
  6
SOLID
 62
     0
100
AcDbLine
 10
-1.728397
 20
3.3289
 30
0.0
 11
-1.849882
 21
3.22477
 31
0.0
  0
LINE
  5
709
100
AcDbEntity
  8
3
  6
SOLID
 62
     0
100
AcDbLine
 10
-1.849882
 20
3.22477
 30
0.0
 11
-1.920527
 21
3.307189
 31
0.0
  0
LINE
  5
70A
100
AcDbEntity
  8
3
  6
SOLID
 62
     0
100
AcDbLine
 10
-3.223588
 20
-1.81043
 30
0.0
 11
-3.221656
 21
-1.812362
 31
0.0
  0
LINE
  5
70B
100
AcDbEntity
  8
3
  6
SOLID
 62
     0
100
AcDbLine
 10
-3.208646
 20
-1.705852
 30
0.0
 11
-3.05226
 21
-1.706426
 31
0.0
  0
LINE
  5
70C
100
AcDbEntity
  8
3
  6
SOLID
 62
     0
100
AcDbLine
 10
-3.222252
 20
-1.792694
 30
0.0
 11
-3.116504
 21
-1.792694
 31
0.0
  0
LINE
  5
70D
100
AcDbEntity
  8
3
  6
SOLID
 62
     0
100
AcDbLine
 10
1.879078
 20
3.107688
 30
0.0
 11
2.009341
 21
3.107688
 31
0.0
  0
ENDSEC
  0
SECTION
  2
OBJECTS
  0
DICTIONARY
  5
19
100
AcDbDictionary
  3
ACAD_GROUP
350
1A
  3
ACAD_MLINESTYLE
350
1B
  0
DICTIONARY
  5
1A
102
{ACAD_REACTORS
330
19
102
}
100
AcDbDictionary
  0
DICTIONARY
  5
1B
102
{ACAD_REACTORS
330
19
102
}
100
AcDbDictionary
  3
STANDARD
350
1C
  0
MLINESTYLE
  5
1C
102
{ACAD_REACTORS
330
1B
102
}
100
AcDbMlineStyle
  2
STANDARD
 70
     0
  3

 62
     0
 51
90.0
 52
90.0
 71
     2
 49
0.5
 62
   256
  6
BYLAYER
 49
-0.5
 62
   256
  6
BYLAYER
  0
ENDSEC
  0
EOF
